  0
SECTION
  2
HEADER
  9
$ACADVER
  1
AC1018
  9
$ACADMAINTVER
 70
     0
  9
$DWGCODEPAGE
  3
ANSI_1252
  9
$INSBASE
 10
0.0
 20
0.0
 30
0.0
  9
$EXTMIN
 10
-8.0
 20
-13.26380274578375
 30
0.0
  9
$EXTMAX
 10
29.0
 20
30.73619725421624
 30
0.0000000000000053
  9
$LIMMIN
 10
0.0
 20
0.0
  9
$LIMMAX
 10
12.0
 20
9.0
  9
$ORTHOMODE
 70
     0
  9
$REGENMODE
 70
     1
  9
$FILLMODE
 70
     1
  9
$QTEXTMODE
 70
     0
  9
$MIRRTEXT
 70
     1
  9
$LTSCALE
 40
1.0
  9
$ATTMODE
 70
     1
  9
$TEXTSIZE
 40
0.2
  9
$TRACEWID
 40
0.05
  9
$TEXTSTYLE
  7
Standard
  9
$CLAYER
  8
SETUP
  9
$CELTYPE
  6
ByLayer
  9
$CECOLOR
 62
   256
  9
$CELTSCALE
 40
1.0
  9
$DISPSILH
 70
     0
  9
$DIMSCALE
 40
1.0
  9
$DIMASZ
 40
0.18
  9
$DIMEXO
 40
0.0625
  9
$DIMDLI
 40
0.38
  9
$DIMRND
 40
0.0
  9
$DIMDLE
 40
0.0
  9
$DIMEXE
 40
0.18
  9
$DIMTP
 40
0.0
  9
$DIMTM
 40
0.0
  9
$DIMTXT
 40
0.18
  9
$DIMCEN
 40
0.09
  9
$DIMTSZ
 40
0.0
  9
$DIMTOL
 70
     0
  9
$DIMLIM
 70
     0
  9
$DIMTIH
 70
     1
  9
$DIMTOH
 70
     1
  9
$DIMSE1
 70
     0
  9
$DIMSE2
 70
     0
  9
$DIMTAD
 70
     0
  9
$DIMZIN
 70
     0
  9
$DIMBLK
  1

  9
$DIMASO
 70
     1
  9
$DIMSHO
 70
     1
  9
$DIMPOST
  1

  9
$DIMAPOST
  1

  9
$DIMALT
 70
     0
  9
$DIMALTD
 70
     2
  9
$DIMALTF
 40
25.4
  9
$DIMLFAC
 40
1.0
  9
$DIMTOFL
 70
     0
  9
$DIMTVP
 40
0.0
  9
$DIMTIX
 70
     0
  9
$DIMSOXD
 70
     0
  9
$DIMSAH
 70
     0
  9
$DIMBLK1
  1

  9
$DIMBLK2
  1

  9
$DIMSTYLE
  2
Standard
  9
$DIMCLRD
 70
     0
  9
$DIMCLRE
 70
     0
  9
$DIMCLRT
 70
     0
  9
$DIMTFAC
 40
1.0
  9
$DIMGAP
 40
0.09
  9
$DIMJUST
 70
     0
  9
$DIMSD1
 70
     0
  9
$DIMSD2
 70
     0
  9
$DIMTOLJ
 70
     1
  9
$DIMTZIN
 70
     0
  9
$DIMALTZ
 70
     0
  9
$DIMALTTZ
 70
     0
  9
$DIMUPT
 70
     0
  9
$DIMDEC
 70
     4
  9
$DIMTDEC
 70
     4
  9
$DIMALTU
 70
     2
  9
$DIMALTTD
 70
     2
  9
$DIMTXSTY
  7
Standard
  9
$DIMAUNIT
 70
     0
  9
$DIMADEC
 70
     0
  9
$DIMALTRND
 40
0.0
  9
$DIMAZIN
 70
     0
  9
$DIMDSEP
 70
    46
  9
$DIMATFIT
 70
     3
  9
$DIMFRAC
 70
     0
  9
$DIMLDRBLK
  1

  9
$DIMLUNIT
 70
     2
  9
$DIMLWD
 70
    -2
  9
$DIMLWE
 70
    -2
  9
$DIMTMOVE
 70
     2
  9
$LUNITS
 70
     2
  9
$LUPREC
 70
     3
  9
$SKETCHINC
 40
0.1
  9
$FILLETRAD
 40
0.5
  9
$AUNITS
 70
     0
  9
$AUPREC
 70
     0
  9
$MENU
  1
.
  9
$ELEVATION
 40
0.0
  9
$PELEVATION
 40
0.0
  9
$THICKNESS
 40
0.0
  9
$LIMCHECK
 70
     0
  9
$CHAMFERA
 40
0.5
  9
$CHAMFERB
 40
0.5
  9
$CHAMFERC
 40
1.0
  9
$CHAMFERD
 40
0.0
  9
$SKPOLY
 70
     0
  9
$TDCREATE
 40
2456042.89390647
  9
$TDUCREATE
 40
2456043.060573136
  9
$TDUPDATE
 40
2456042.893906482
  9
$TDUUPDATE
 40
2456043.060573148
  9
$TDINDWG
 40
0.0000000116
  9
$TDUSRTIMER
 40
0.0000000116
  9
$USRTIMER
 70
     1
  9
$ANGBASE
 50
0.0
  9
$ANGDIR
 70
     0
  9
$PDMODE
 70
     0
  9
$PDSIZE
 40
0.0
  9
$PLINEWID
 40
0.0
  9
$SPLFRAME
 70
     0
  9
$SPLINETYPE
 70
     6
  9
$SPLINESEGS
 70
     8
  9
$HANDSEED
  5
221
  9
$SURFTAB1
 70
     6
  9
$SURFTAB2
 70
     6
  9
$SURFTYPE
 70
     6
  9
$SURFU
 70
     6
  9
$SURFV
 70
     6
  9
$UCSBASE
  2

  9
$UCSNAME
  2

  9
$UCSORG
 10
0.0
 20
0.0
 30
0.0
  9
$UCSXDIR
 10
1.0
 20
0.0
 30
0.0
  9
$UCSYDIR
 10
0.0
 20
1.0
 30
0.0
  9
$UCSORTHOREF
  2

  9
$UCSORTHOVIEW
 70
     0
  9
$UCSORGTOP
 10
0.0
 20
0.0
 30
0.0
  9
$UCSORGBOTTOM
 10
0.0
 20
0.0
 30
0.0
  9
$UCSORGLEFT
 10
0.0
 20
0.0
 30
0.0
  9
$UCSORGRIGHT
 10
0.0
 20
0.0
 30
0.0
  9
$UCSORGFRONT
 10
0.0
 20
0.0
 30
0.0
  9
$UCSORGBACK
 10
0.0
 20
0.0
 30
0.0
  9
$PUCSBASE
  2

  9
$PUCSNAME
  2

  9
$PUCSORG
 10
0.0
 20
0.0
 30
0.0
  9
$PUCSXDIR
 10
1.0
 20
0.0
 30
0.0
  9
$PUCSYDIR
 10
0.0
 20
1.0
 30
0.0
  9
$PUCSORTHOREF
  2

  9
$PUCSORTHOVIEW
 70
     0
  9
$PUCSORGTOP
 10
0.0
 20
0.0
 30
0.0
  9
$PUCSORGBOTTOM
 10
0.0
 20
0.0
 30
0.0
  9
$PUCSORGLEFT
 10
0.0
 20
0.0
 30
0.0
  9
$PUCSORGRIGHT
 10
0.0
 20
0.0
 30
0.0
  9
$PUCSORGFRONT
 10
0.0
 20
0.0
 30
0.0
  9
$PUCSORGBACK
 10
0.0
 20
0.0
 30
0.0
  9
$USERI1
 70
     0
  9
$USERI2
 70
     0
  9
$USERI3
 70
     0
  9
$USERI4
 70
     0
  9
$USERI5
 70
     0
  9
$USERR1
 40
0.0
  9
$USERR2
 40
0.0
  9
$USERR3
 40
0.0
  9
$USERR4
 40
0.0
  9
$USERR5
 40
0.0
  9
$WORLDVIEW
 70
     1
  9
$SHADEDGE
 70
     3
  9
$SHADEDIF
 70
    70
  9
$TILEMODE
 70
     1
  9
$MAXACTVP
 70
    64
  9
$PINSBASE
 10
0.0
 20
0.0
 30
0.0
  9
$PLIMCHECK
 70
     0
  9
$PEXTMIN
 10
1.000000000000000E+20
 20
1.000000000000000E+20
 30
1.000000000000000E+20
  9
$PEXTMAX
 10
-1.000000000000000E+20
 20
-1.000000000000000E+20
 30
-1.000000000000000E+20
  9
$PLIMMIN
 10
0.0
 20
0.0
  9
$PLIMMAX
 10
12.0
 20
9.0
  9
$UNITMODE
 70
     0
  9
$VISRETAIN
 70
     1
  9
$PLINEGEN
 70
     0
  9
$PSLTSCALE
 70
     1
  9
$TREEDEPTH
 70
  3020
  9
$CMLSTYLE
  2
Standard
  9
$CMLJUST
 70
     0
  9
$CMLSCALE
 40
1.0
  9
$PROXYGRAPHICS
 70
     1
  9
$MEASUREMENT
 70
     0
  9
$CELWEIGHT
370
    -1
  9
$ENDCAPS
280
     0
  9
$JOINSTYLE
280
     0
  9
$LWDISPLAY
290
     0
  9
$INSUNITS
 70
     4
  9
$HYPERLINKBASE
  1

  9
$STYLESHEET
  1

  9
$XEDIT
290
     1
  9
$CEPSNTYPE
380
     0
  9
$PSTYLEMODE
290
     1
  9
$FINGERPRINTGUID
  2
{3D177C4A-3513-49AE-8E80-A6D4C38050D5}
  9
$VERSIONGUID
  2
{FAEB1C32-E019-11D5-929B-00C0DF256EC4}
  9
$EXTNAMES
290
     1
  9
$PSVPSCALE
 40
0.0
  9
$OLESTARTUP
290
     0
  9
$SORTENTS
280
   127
  9
$INDEXCTL
280
     0
  9
$HIDETEXT
280
     1
  9
$XCLIPFRAME
290
     0
  9
$HALOGAP
280
     0
  9
$OBSCOLOR
 70
   257
  9
$OBSLTYPE
280
     0
  9
$INTERSECTIONDISPLAY
280
     0
  9
$INTERSECTIONCOLOR
 70
   257
  9
$DIMASSOC
280
     2
  9
$PROJECTNAME
  1

  0
ENDSEC
  0
SECTION
  2
CLASSES
  0
CLASS
  1
ACDBDICTIONARYWDFLT
  2
AcDbDictionaryWithDefault
  3
ObjectDBX Classes
 90
        0
 91
        4
280
     0
281
     0
  0
CLASS
  1
VISUALSTYLE
  2
AcDbVisualStyle
  3
ObjectDBX Classes
 90
     4095
 91
        4
280
     0
281
     0
  0
ENDSEC
  0
SECTION
  2
TABLES
  0
TABLE
  2
VPORT
  5
8
330
0
100
AcDbSymbolTable
 70
     1
  0
VPORT
  5
29
330
8
100
AcDbSymbolTableRecord
100
AcDbViewportTableRecord
  2
*Active
 70
     0
 10
0.0
 20
0.0
 11
1.0
 21
1.0
 12
10.5
 22
8.736197254216243
 13
0.0
 23
0.0
 14
0.5
 24
0.5
 15
0.5
 25
0.5
 16
0.0
 26
0.0
 36
1.0
 17
0.0
 27
0.0
 37
0.0
 40
44.88
 41
0.8409090909090909
 42
50.0
 43
0.0
 44
0.0
 50
0.0
 51
0.0
 71
     0
 72
   100
 73
     1
 74
     3
 75
     0
 76
     0
 77
     0
 78
     0
281
     0
 65
     1
110
0.0
120
0.0
130
0.0
111
1.0
121
0.0
131
0.0
112
0.0
122
1.0
132
0.0
 79
     0
146
0.0
  0
ENDTAB
  0
TABLE
  2
LTYPE
  5
5
330
0
100
AcDbSymbolTable
 70
     1
  0
LTYPE
  5
14
330
5
100
AcDbSymbolTableRecord
100
AcDbLinetypeTableRecord
  2
ByBlock
 70
     0
  3

 72
    65
 73
     0
 40
0.0
  0
LTYPE
  5
15
330
5
100
AcDbSymbolTableRecord
100
AcDbLinetypeTableRecord
  2
ByLayer
 70
     0
  3

 72
    65
 73
     0
 40
0.0
  0
LTYPE
  5
16
330
5
100
AcDbSymbolTableRecord
100
AcDbLinetypeTableRecord
  2
Continuous
 70
     0
  3
Solid line
 72
    65
 73
     0
 40
0.0
  0
ENDTAB
  0
TABLE
  2
LAYER
  5
2
330
0
100
AcDbSymbolTable
 70
     2
  0
LAYER
  5
10
330
2
100
AcDbSymbolTableRecord
100
AcDbLayerTableRecord
  2
0
 70
     0
 62
     7
  6
Continuous
370
    -3
390
F
  0
LAYER
  5
3B
330
2
100
AcDbSymbolTableRecord
100
AcDbLayerTableRecord
  2
SETUP
 70
     0
 62
     7
  6
Continuous
370
    -3
390
F
  0
ENDTAB
  0
TABLE
  2
STYLE
  5
3
330
0
100
AcDbSymbolTable
 70
     1
  0
STYLE
  5
11
330
3
100
AcDbSymbolTableRecord
100
AcDbTextStyleTableRecord
  2
Standard
 70
     0
 40
0.0
 41
1.0
 50
0.0
 71
     0
 42
0.2
  3
txt
  4

  0
ENDTAB
  0
TABLE
  2
VIEW
  5
6
330
0
100
AcDbSymbolTable
 70
     0
  0
ENDTAB
  0
TABLE
  2
UCS
  5
7
330
0
100
AcDbSymbolTable
 70
     0
  0
ENDTAB
  0
TABLE
  2
APPID
  5
9
330
0
100
AcDbSymbolTable
 70
     1
  0
APPID
  5
12
330
9
100
AcDbSymbolTableRecord
100
AcDbRegAppTableRecord
  2
ACAD
 70
     0
  0
ENDTAB
  0
TABLE
  2
DIMSTYLE
  5
A
330
0
100
AcDbSymbolTable
 70
     1
100
AcDbDimStyleTable
  0
DIMSTYLE
105
27
330
A
100
AcDbSymbolTableRecord
100
AcDbDimStyleTableRecord
  2
Standard
 70
     0
340
11
  0
ENDTAB
  0
TABLE
  2
BLOCK_RECORD
  5
1
330
0
100
AcDbSymbolTable
 70
     1
  0
BLOCK_RECORD
  5
1F
330
1
100
AcDbSymbolTableRecord
100
AcDbBlockTableRecord
  2
*Model_Space
340
22
  0
BLOCK_RECORD
  5
1B
330
1
100
AcDbSymbolTableRecord
100
AcDbBlockTableRecord
  2
*Paper_Space
340
1E
  0
BLOCK_RECORD
  5
23
330
1
100
AcDbSymbolTableRecord
100
AcDbBlockTableRecord
  2
*Paper_Space0
340
26
  0
ENDTAB
  0
ENDSEC
  0
SECTION
  2
BLOCKS
  0
BLOCK
  5
20
330
1F
100
AcDbEntity
  8
0
100
AcDbBlockBegin
  2
*Model_Space
 70
     0
 10
0.0
 20
0.0
 30
0.0
  3
*Model_Space
  1

  0
ENDBLK
  5
21
330
1F
100
AcDbEntity
  8
0
100
AcDbBlockEnd
  0
BLOCK
  5
1C
330
1B
100
AcDbEntity
 67
     1
  8
0
100
AcDbBlockBegin
  2
*Paper_Space
 70
     0
 10
0.0
 20
0.0
 30
0.0
  3
*Paper_Space
  1

  0
ENDBLK
  5
1D
330
1B
100
AcDbEntity
 67
     1
  8
0
100
AcDbBlockEnd
  0
BLOCK
  5
24
330
23
100
AcDbEntity
  8
0
100
AcDbBlockBegin
  2
*Paper_Space0
 70
     0
 10
0.0
 20
0.0
 30
0.0
  3
*Paper_Space0
  1

  0
ENDBLK
  5
25
330
23
100
AcDbEntity
  8
0
100
AcDbBlockEnd
  0
ENDSEC
  0
SECTION
  2
ENTITIES
  0
LINE
  5
3C
330
1F
100
AcDbEntity
  8
SETUP
100
AcDbLine
 10
-8.0
 20
30.73619725421624
 30
0.0
 11
-8.0
 21
-13.26380274578375
 31
0.0
  0
LINE
  5
3D
330
1F
100
AcDbEntity
  8
SETUP
100
AcDbLine
 10
29.0
 20
30.73619725421624
 30
0.0
 11
-8.0
 21
30.73619725421624
 31
0.0
  0
LINE
  5
3E
330
1F
100
AcDbEntity
  8
SETUP
100
AcDbLine
 10
29.0
 20
-13.26380274578375
 30
0.0
 11
29.0
 21
30.73619725421624
 31
0.0
  0
LINE
  5
3F
330
1F
100
AcDbEntity
  8
SETUP
100
AcDbLine
 10
-8.0
 20
-13.26380274578375
 30
0.0
 11
29.0
 21
-13.26380274578375
 31
0.0
  0
CIRCLE
  5
40
330
1F
100
AcDbEntity
  8
SETUP
100
AcDbCircle
 10
7.31579165355893
 20
20.25684821471711
 30
0.0
 40
0.0999999999999996
  0
CIRCLE
  5
41
330
1F
100
AcDbEntity
  8
SETUP
100
AcDbCircle
 10
20.05942940582774
 20
-7.077668203481391
 30
0.0
 40
0.1
  0
POLYLINE
  5
42
330
1F
100
AcDbEntity
  8
SETUP
100
AcDb2dPolyline
 66
     1
 10
0.0
 20
0.0
 30
0.0
  0
VERTEX
  5
43
330
42
100
AcDbEntity
  8
SETUP
100
AcDbVertex
100
AcDb2dVertex
 10
18.90313309159798
 20
-6.577668203481389
 30
0.0
  0
VERTEX
  5
44
330
42
100
AcDbEntity
  8
SETUP
100
AcDbVertex
100
AcDb2dVertex
 10
20.05942940582774
 20
-6.577668203481387
 30
0.0
  0
SEQEND
  5
45
330
42
100
AcDbEntity
  8
SETUP
  0
ARC
  5
46
330
1F
100
AcDbEntity
  8
SETUP
100
AcDbCircle
 10
20.05942940582774
 20
-7.077668203481391
 30
0.0
 40
0.5000000000000036
100
AcDbArc
 50
270.0
 51
90.0
  0
POLYLINE
  5
47
330
1F
100
AcDbEntity
  8
SETUP
100
AcDb2dPolyline
 66
     1
 10
0.0
 20
0.0
 30
0.0
  0
VERTEX
  5
48
330
47
100
AcDbEntity
  8
SETUP
100
AcDbVertex
100
AcDb2dVertex
 10
20.05942940582774
 20
-7.577668203481394
 30
0.0
  0
VERTEX
  5
49
330
47
100
AcDbEntity
  8
SETUP
100
AcDbVertex
100
AcDb2dVertex
 10
18.90313309159798
 20
-7.577668203481394
 30
0.0
  0
SEQEND
  5
4A
330
47
100
AcDbEntity
  8
SETUP
  0
ARC
  5
4B
330
1F
100
AcDbEntity
  8
SETUP
100
AcDbCircle
 10
18.90313309159798
 20
-7.877668203481395
 30
0.0
 40
0.3
100
AcDbArc
 50
89.99999999999865
 51
175.6522294028986
  0
ARC
  5
4C
330
1F
100
AcDbEntity
  8
SETUP
100
AcDbCircle
 10
8.380818325512589
 20
-7.077668203481357
 30
0.0
 40
10.25268250430091
100
AcDbArc
 50
331.8205595073
 51
355.6522294028993
  0
ARC
  5
4D
330
1F
100
AcDbEntity
  8
SETUP
100
AcDbCircle
 10
17.153838844776
 20
-11.77766820348143
 30
0.0
 40
0.3
100
AcDbArc
 50
270.0
 51
331.8205595072999
  0
LINE
  5
4E
330
1F
100
AcDbEntity
  8
SETUP
100
AcDbLine
 10
17.153838844776
 20
-12.07766820348143
 30
0.0
 11
2.633500829813546
 21
-12.0776682034814
 31
0.0
  0
SPLINE
  5
4F
330
1F
100
AcDbEntity
  8
SETUP
100
AcDbSpline
210
0.0
220
0.0
230
1.0
 70
     8
 71
     3
 72
     9
 73
     5
 74
     0
 42
0.0000000001
 43
0.0000000001
 40
22.395270900154
 40
22.395270900154
 40
22.395270900154
 40
22.395270900154
 40
23.395270900154
 40
24.395270900154
 40
24.395270900154
 40
24.395270900154
 40
24.395270900154
 10
2.633500829813546
 20
-12.0776682034814
 30
0.0
 10
2.016758338059372
 20
-12.0776682034814
 30
0.0
 10
2.413852065525219
 20
-8.453654270570006
 30
0.0
 10
1.633500829813545
 20
-8.10219258638083
 30
0.0
 10
1.633500829813545
 20
-7.077668203481402
 30
0.0
  0
SPLINE
  5
50
330
1F
100
AcDbEntity
  8
SETUP
100
AcDbSpline
210
0.0
220
0.0
230
1.0
 70
     8
 71
     3
 72
     9
 73
     5
 74
     0
 42
0.0000000001
 43
0.0000000001
 40
24.395270900154
 40
24.395270900154
 40
24.395270900154
 40
24.395270900154
 40
25.395270900154
 40
26.395270900154
 40
26.395270900154
 40
26.395270900154
 40
26.395270900154
 10
1.633500829813545
 20
-7.077668203481402
 30
0.0
 10
1.633500829813545
 20
-6.053143820581973
 30
0.0
 10
2.413852065525219
 20
-5.701682136392797
 30
0.0
 10
2.016758338059372
 20
-2.077668203481401
 30
0.0
 10
2.633500829813546
 20
-2.077668203481401
 30
0.0
  0
LINE
  5
51
330
1F
100
AcDbEntity
  8
SETUP
100
AcDbLine
 10
2.633500829813546
 20
-2.077668203481401
 30
0.0
 11
17.153838844776
 21
-2.077668203481373
 31
0.0
  0
ARC
  5
52
330
1F
100
AcDbEntity
  8
SETUP
100
AcDbCircle
 10
17.153838844776
 20
-2.37766820348137
 30
0.0
 40
0.3
100
AcDbArc
 50
28.17944049270007
 51
90.0
  0
ARC
  5
53
330
1F
100
AcDbEntity
  8
SETUP
100
AcDbCircle
 10
8.380818325512674
 20
-7.077668203481414
 30
0.0
 40
10.25268250430083
100
AcDbArc
 50
4.347770597100721
 51
28.17944049269999
  0
ARC
  5
54
330
1F
100
AcDbEntity
  8
SETUP
100
AcDbCircle
 10
18.90313309159797
 20
-6.277668203481388
 30
0.0
 40
0.3
100
AcDbArc
 50
184.3477705970998
 51
270.0000000000007
  0
LINE
  5
55
330
1F
100
AcDbEntity
  8
SETUP
100
AcDbLine
 10
2.133500829813546
 20
-6.877668203481399
 30
0.0
 11
2.633500829813546
 21
-6.877668203481399
 31
0.0
  0
POLYLINE
  5
56
330
1F
100
AcDbEntity
  8
SETUP
100
AcDb2dPolyline
 66
     1
 10
0.0
 20
0.0
 30
0.0
  0
VERTEX
  5
57
330
56
100
AcDbEntity
  8
SETUP
100
AcDbVertex
100
AcDb2dVertex
 10
2.633500829813546
 20
-6.877668203481399
 30
0.0
  0
VERTEX
  5
58
330
56
100
AcDbEntity
  8
SETUP
100
AcDbVertex
100
AcDb2dVertex
 10
2.633500829813546
 20
-2.577668203481401
 30
0.0
  0
SEQEND
  5
59
330
56
100
AcDbEntity
  8
SETUP
  0
LINE
  5
5A
330
1F
100
AcDbEntity
  8
SETUP
100
AcDbLine
 10
2.633500829813546
 20
-2.577668203481401
 30
0.0
 11
16.84918337002486
 21
-2.577668203481387
 31
0.0
  0
ARC
  5
5B
330
1F
100
AcDbEntity
  8
SETUP
100
AcDbCircle
 10
16.84918337002486
 20
-2.877668203481384
 30
0.0
 40
0.3
100
AcDbArc
 50
26.37973325701044
 51
90.0
  0
SPLINE
  5
5C
330
1F
100
AcDbEntity
  8
SETUP
100
AcDbSpline
210
0.0
220
0.0
230
1.0
 70
    12
 71
     2
 72
     6
 73
     3
 74
     0
 42
0.0000000001
 43
0.0000000001
 40
-9.940338474207211
 40
-9.940338474207211
 40
-9.940338474207211
 40
-5.222995227548065
 40
-5.222995227548065
 40
-5.222995227548065
 10
17.11794406437774
 20
-2.744372707792454
 30
0.0
 41
0.9956879577346621
 10
18.13350082981349
 20
-4.792016853776807
 30
0.0
 41
0.9715178624194301
 10
18.13350082981349
 20
-7.077668203481387
 30
0.0
 41
1.0
  0
SPLINE
  5
5D
330
1F
100
AcDbEntity
  8
SETUP
100
AcDbSpline
210
0.0
220
0.0
230
1.0
 70
    12
 71
     2
 72
     6
 73
     3
 74
     0
 42
0.0000000001
 43
0.0000000001
 40
5.222995227548065
 40
5.222995227548065
 40
5.222995227548065
 40
9.940338474207211
 40
9.940338474207211
 40
9.940338474207211
 10
18.13350082981349
 20
-7.077668203481416
 30
0.0
 41
1.0
 10
18.13350082981349
 20
-9.363319553185999
 30
0.0
 41
0.9715178624194301
 10
17.11794406437774
 20
-11.41096369917035
 30
0.0
 41
0.9956879577346621
  0
ARC
  5
5E
330
1F
100
AcDbEntity
  8
SETUP
100
AcDbCircle
 10
16.84918337002486
 20
-11.27766820348142
 30
0.0
 40
0.3
100
AcDbArc
 50
270.0
 51
333.6202667429896
  0
LINE
  5
5F
330
1F
100
AcDbEntity
  8
SETUP
100
AcDbLine
 10
16.84918337002486
 20
-11.57766820348142
 30
0.0
 11
2.633500829813546
 21
-11.5776682034814
 31
0.0
  0
POLYLINE
  5
60
330
1F
100
AcDbEntity
  8
SETUP
100
AcDb2dPolyline
 66
     1
 10
0.0
 20
0.0
 30
0.0
  0
VERTEX
  5
61
330
60
100
AcDbEntity
  8
SETUP
100
AcDbVertex
100
AcDb2dVertex
 10
2.633500829813546
 20
-11.5776682034814
 30
0.0
  0
VERTEX
  5
62
330
60
100
AcDbEntity
  8
SETUP
100
AcDbVertex
100
AcDb2dVertex
 10
2.633500829813546
 20
-7.277668203481404
 30
0.0
  0
SEQEND
  5
63
330
60
100
AcDbEntity
  8
SETUP
  0
LINE
  5
64
330
1F
100
AcDbEntity
  8
SETUP
100
AcDbLine
 10
2.633500829813546
 20
-7.277668203481404
 30
0.0
 11
2.133500829813546
 21
-7.277668203481404
 31
0.0
  0
LINE
  5
65
330
1F
100
AcDbEntity
  8
SETUP
100
AcDbLine
 10
2.133500829813546
 20
-7.277668203481404
 30
0.0
 11
2.133500829813546
 21
-6.877668203481399
 31
0.0
  0
LINE
  5
66
330
1F
100
AcDbEntity
  8
SETUP
100
AcDbLine
 10
18.13350082981349
 20
-6.877668203481386
 30
0.0
 11
17.63555176330335
 21
-6.877668203481388
 31
0.0
  0
LINE
  5
67
330
1F
100
AcDbEntity
  8
SETUP
100
AcDbLine
 10
17.63555176330335
 20
-6.877668203481388
 30
0.0
 11
17.63555176330335
 21
-7.277668203481387
 31
0.0
  0
LINE
  5
68
330
1F
100
AcDbEntity
  8
SETUP
100
AcDbLine
 10
17.63555176330335
 20
-7.277668203481387
 30
0.0
 11
18.13350082981348
 21
-7.277668203481396
 31
0.0
  0
SPLINE
  5
69
330
1F
100
AcDbEntity
  8
SETUP
100
AcDbSpline
210
0.0
220
0.0
230
1.0
 70
    12
 71
     2
 72
     6
 73
     3
 74
     0
 42
0.0000000001
 43
0.0000000001
 40
5.435185571433923
 40
5.435185571433923
 40
5.435185571433923
 40
9.940338474207211
 40
9.940338474207211
 40
9.940338474207211
 10
18.13350082981348
 20
-7.277668203481396
 30
0.0
 41
0.9975442259276421
 10
18.0887869640216
 20
-9.457610360698178
 30
0.0
 41
0.9726050550548876
 10
17.11999499786758
 20
-11.41096369917035
 30
0.0
 41
0.9956879577346621
  0
ARC
  5
6A
330
1F
100
AcDbEntity
  8
SETUP
100
AcDbCircle
 10
16.8512343035147
 20
-11.27766820348142
 30
0.0
 40
0.3
100
AcDbArc
 50
270.0
 51
333.6202667429896
  0
LINE
  5
6B
330
1F
100
AcDbEntity
  8
SETUP
100
AcDbLine
 10
16.8512343035147
 20
-11.57766820348142
 30
0.0
 11
9.419869223091982
 21
-11.57766820348142
 31
0.0
  0
ARC
  5
6C
330
1F
100
AcDbEntity
  8
SETUP
100
AcDbCircle
 10
9.419869223091982
 20
-11.27766820348142
 30
0.0
 40
0.3
100
AcDbArc
 50
206.3797332570106
 51
270.0
  0
SPLINE
  5
6D
330
1F
100
AcDbEntity
  8
SETUP
100
AcDbSpline
210
0.0
220
0.0
230
1.0
 70
    12
 71
     2
 72
     6
 73
     3
 74
     0
 42
0.0000000001
 43
0.0000000001
 40
-9.940338474207211
 40
-9.940338474207211
 40
-9.940338474207211
 40
-5.435185571433923
 40
-5.435185571433923
 40
-5.435185571433923
 10
9.151108528739107
 20
-11.41096369917035
 30
0.0
 41
0.9956879577346621
 10
8.182316562585093
 20
-9.457610360698178
 30
0.0
 41
0.9726050550548876
 10
8.137602696793204
 20
-7.277668203481396
 30
0.0
 41
0.9975442259276421
  0
LINE
  5
6E
330
1F
100
AcDbEntity
  8
SETUP
100
AcDbLine
 10
8.137602696793206
 20
-7.277668203481396
 30
0.0
 11
8.635551763303337
 21
-7.277668203481387
 31
0.0
  0
LINE
  5
6F
330
1F
100
AcDbEntity
  8
SETUP
100
AcDbLine
 10
8.635551763303337
 20
-7.277668203481387
 30
0.0
 11
8.635551763303337
 21
-6.877668203481388
 31
0.0
  0
LINE
  5
70
330
1F
100
AcDbEntity
  8
SETUP
100
AcDbLine
 10
8.635551763303337
 20
-6.877668203481388
 30
0.0
 11
8.137602696793202
 21
-6.877668203481386
 31
0.0
  0
SPLINE
  5
71
330
1F
100
AcDbEntity
  8
SETUP
100
AcDbSpline
210
0.0
220
0.0
230
1.0
 70
    12
 71
     2
 72
     6
 73
     3
 74
     0
 42
0.0000000001
 43
0.0000000001
 40
5.435185571433937
 40
5.435185571433937
 40
5.435185571433937
 40
9.940338474207211
 40
9.940338474207211
 40
9.940338474207211
 10
8.137602696793202
 20
-6.877668203481385
 30
0.0
 41
0.9975442259276419
 10
8.182316562585093
 20
-4.697726046264616
 30
0.0
 41
0.9726050550548876
 10
9.151108528739107
 20
-2.744372707792446
 30
0.0
 41
0.9956879577346621
  0
ARC
  5
72
330
1F
100
AcDbEntity
  8
SETUP
100
AcDbCircle
 10
9.419869223091982
 20
-2.877668203481384
 30
0.0
 40
0.3
100
AcDbArc
 50
90.0
 51
153.6202667429894
  0
LINE
  5
73
330
1F
100
AcDbEntity
  8
SETUP
100
AcDbLine
 10
9.419869223091982
 20
-2.577668203481401
 30
0.0
 11
16.8512343035147
 21
-2.577668203481384
 31
0.0
  0
ARC
  5
74
330
1F
100
AcDbEntity
  8
SETUP
100
AcDbCircle
 10
16.8512343035147
 20
-2.877668203481384
 30
0.0
 40
0.3
100
AcDbArc
 50
26.37973325701044
 51
90.0
  0
SPLINE
  5
75
330
1F
100
AcDbEntity
  8
SETUP
100
AcDbSpline
210
0.0
220
0.0
230
1.0
 70
    12
 71
     2
 72
     6
 73
     3
 74
     0
 42
0.0000000001
 43
0.0000000001
 40
-9.940338474207211
 40
-9.940338474207211
 40
-9.940338474207211
 40
-5.435185571433937
 40
-5.435185571433937
 40
-5.435185571433937
 10
17.11999499786758
 20
-2.744372707792446
 30
0.0
 41
0.9956879577346621
 10
18.0887869640216
 20
-4.697726046264616
 30
0.0
 41
0.9726050550548876
 10
18.13350082981349
 20
-6.877668203481385
 30
0.0
 41
0.9975442259276419
  0
CIRCLE
  5
76
330
1F
100
AcDbEntity
  8
SETUP
100
AcDbCircle
 10
1.537251730097857
 20
-0.1765662784696489
 30
0.0
 40
0.0999999999999996
  0
SPLINE
  5
77
330
1F
100
AcDbEntity
  8
SETUP
100
AcDbSpline
210
0.0
220
0.0
230
1.0
 70
     8
 71
     3
 72
     9
 73
     5
 74
     0
 42
0.0000000001
 43
0.0000000001
 40
-2.0
 40
-2.0
 40
-2.0
 40
-2.0
 40
-1.0
 40
-0.0688176397211619
 40
-0.0688176397211619
 40
-0.0688176397211619
 40
-0.0688176397211619
 10
7.522869040296474
 20
2.513460543427231
 30
0.0
 10
6.9061265485423
 20
2.513460543427231
 30
0.0
 10
7.289556749472011
 20
5.662844844716683
 30
0.0
 10
6.575176914647276
 20
6.06613337747489
 30
0.0
 10
6.528189402176432
 20
6.833460543427237
 30
0.0
  0
LINE
  5
78
330
1F
100
AcDbEntity
  8
SETUP
100
AcDbLine
 10
6.528189402176432
 20
6.833460543427237
 30
0.0
 11
7.028189402176423
 21
6.833460543427237
 31
0.0
  0
LINE
  5
79
330
1F
100
AcDbEntity
  8
SETUP
100
AcDbLine
 10
7.028189402176423
 20
6.833460543427237
 30
0.0
 11
7.028189402176423
 21
7.193460543427237
 31
0.0
  0
LINE
  5
7A
330
1F
100
AcDbEntity
  8
SETUP
100
AcDbLine
 10
7.028189402176423
 20
7.193460543427237
 30
0.0
 11
6.528189402176423
 21
7.193460543427237
 31
0.0
  0
SPLINE
  5
7B
330
1F
100
AcDbEntity
  8
SETUP
100
AcDbSpline
210
0.0
220
0.0
230
1.0
 70
     8
 71
     3
 72
     9
 73
     5
 74
     0
 42
0.0000000001
 43
0.0000000001
 40
0.0688176397211658
 40
0.0688176397211658
 40
0.0688176397211658
 40
0.0688176397211658
 40
1.0
 40
2.0
 40
2.0
 40
2.0
 40
2.0
 10
6.528189402176441
 20
7.193460543427237
 30
0.0
 10
6.575176914647278
 20
7.960787709379571
 30
0.0
 10
7.289556749472009
 20
8.364076242137784
 30
0.0
 10
6.9061265485423
 20
11.51346054342724
 30
0.0
 10
7.522869040296474
 20
11.51346054342724
 30
0.0
  0
POLYLINE
  5
7C
330
1F
100
AcDbEntity
  8
SETUP
100
AcDb2dPolyline
 66
     1
 10
0.0
 20
0.0
 30
0.0
  0
VERTEX
  5
7D
330
7C
100
AcDbEntity
  8
SETUP
100
AcDbVertex
100
AcDb2dVertex
 10
7.522869040296474
 20
11.51346054342724
 30
0.0
  0
VERTEX
  5
7E
330
7C
100
AcDbEntity
  8
SETUP
100
AcDbVertex
100
AcDb2dVertex
 10
7.522869040296474
 20
2.513460543427231
 30
0.0
  0
SEQEND
  5
7F
330
7C
100
AcDbEntity
  8
SETUP
  0
SPLINE
  5
80
330
1F
100
AcDbEntity
  8
SETUP
100
AcDbSpline
210
0.0
220
0.0
230
1.0
 70
     8
 71
     3
 72
     9
 73
     5
 74
     0
 42
0.0000000001
 43
0.0000000001
 40
-2.0
 40
-2.0
 40
-2.0
 40
-2.0
 40
-1.0
 40
-0.0688176397211619
 40
-0.0688176397211619
 40
-0.0688176397211619
 40
-0.0688176397211619
 10
5.816006072319194
 20
2.513460543427231
 30
0.0
 10
5.19926358056502
 20
2.513460543427231
 30
0.0
 10
5.582693781494731
 20
5.662844844716683
 30
0.0
 10
4.868313946669996
 20
6.06613337747489
 30
0.0
 10
4.821326434199152
 20
6.833460543427237
 30
0.0
  0
LINE
  5
81
330
1F
100
AcDbEntity
  8
SETUP
100
AcDbLine
 10
4.821326434199152
 20
6.833460543427237
 30
0.0
 11
5.321326434199143
 21
6.833460543427237
 31
0.0
  0
LINE
  5
82
330
1F
100
AcDbEntity
  8
SETUP
100
AcDbLine
 10
5.321326434199143
 20
6.833460543427237
 30
0.0
 11
5.321326434199143
 21
7.193460543427237
 31
0.0
  0
LINE
  5
83
330
1F
100
AcDbEntity
  8
SETUP
100
AcDbLine
 10
5.321326434199143
 20
7.193460543427237
 30
0.0
 11
4.821326434199143
 21
7.193460543427237
 31
0.0
  0
SPLINE
  5
84
330
1F
100
AcDbEntity
  8
SETUP
100
AcDbSpline
210
0.0
220
0.0
230
1.0
 70
     8
 71
     3
 72
     9
 73
     5
 74
     0
 42
0.0000000001
 43
0.0000000001
 40
0.0688176397211658
 40
0.0688176397211658
 40
0.0688176397211658
 40
0.0688176397211658
 40
1.0
 40
2.0
 40
2.0
 40
2.0
 40
2.0
 10
4.821326434199161
 20
7.193460543427237
 30
0.0
 10
4.868313946669998
 20
7.960787709379571
 30
0.0
 10
5.582693781494729
 20
8.364076242137784
 30
0.0
 10
5.19926358056502
 20
11.51346054342724
 30
0.0
 10
5.816006072319194
 20
11.51346054342724
 30
0.0
  0
POLYLINE
  5
85
330
1F
100
AcDbEntity
  8
SETUP
100
AcDb2dPolyline
 66
     1
 10
0.0
 20
0.0
 30
0.0
  0
VERTEX
  5
86
330
85
100
AcDbEntity
  8
SETUP
100
AcDbVertex
100
AcDb2dVertex
 10
5.816006072319194
 20
11.51346054342724
 30
0.0
  0
VERTEX
  5
87
330
85
100
AcDbEntity
  8
SETUP
100
AcDbVertex
100
AcDb2dVertex
 10
5.816006072319194
 20
2.513460543427231
 30
0.0
  0
SEQEND
  5
88
330
85
100
AcDbEntity
  8
SETUP
  0
LINE
  5
89
330
1F
100
AcDbEntity
  8
SETUP
100
AcDbLine
 10
2.563082476901158
 20
6.81346054342723
 30
0.0
 11
3.063082476901158
 21
6.81346054342723
 31
0.0
  0
POLYLINE
  5
8A
330
1F
100
AcDbEntity
  8
SETUP
100
AcDb2dPolyline
 66
     1
 10
0.0
 20
0.0
 30
0.0
  0
VERTEX
  5
8B
330
8A
100
AcDbEntity
  8
SETUP
100
AcDbVertex
100
AcDb2dVertex
 10
3.063082476901158
 20
6.81346054342723
 30
0.0
  0
VERTEX
  5
8C
330
8A
100
AcDbEntity
  8
SETUP
100
AcDbVertex
100
AcDb2dVertex
 10
3.063082476901158
 20
2.513460543427233
 30
0.0
  0
SEQEND
  5
8D
330
8A
100
AcDbEntity
  8
SETUP
  0
LINE
  5
8E
330
1F
100
AcDbEntity
  8
SETUP
100
AcDbLine
 10
3.063082476901158
 20
2.513460543427233
 30
0.0
 11
17.27876501711247
 21
2.513460543427219
 31
0.0
  0
ARC
  5
8F
330
1F
100
AcDbEntity
  8
SETUP
100
AcDbCircle
 10
17.27876501711247
 20
2.813460543427216
 30
0.0
 40
0.3
100
AcDbArc
 50
270.0
 51
333.6202667429896
  0
SPLINE
  5
90
330
1F
100
AcDbEntity
  8
SETUP
100
AcDbSpline
210
0.0
220
0.0
230
1.0
 70
    12
 71
     2
 72
     6
 73
     3
 74
     0
 42
0.0000000001
 43
0.0000000001
 40
-9.940338474207211
 40
-9.940338474207211
 40
-9.940338474207211
 40
-5.222995227548065
 40
-5.222995227548065
 40
-5.222995227548065
 10
17.54752571146535
 20
2.680165047738286
 30
0.0
 41
0.9956879577346621
 10
18.5630824769011
 20
4.727809193722637
 30
0.0
 41
0.9715178624194301
 10
18.5630824769011
 20
7.013460543427219
 30
0.0
 41
1.0
  0
SPLINE
  5
91
330
1F
100
AcDbEntity
  8
SETUP
100
AcDbSpline
210
0.0
220
0.0
230
1.0
 70
    12
 71
     2
 72
     6
 73
     3
 74
     0
 42
0.0000000001
 43
0.0000000001
 40
5.222995227548065
 40
5.222995227548065
 40
5.222995227548065
 40
9.940338474207211
 40
9.940338474207211
 40
9.940338474207211
 10
18.5630824769011
 20
7.013460543427247
 30
0.0
 41
1.0
 10
18.5630824769011
 20
9.299111893131832
 30
0.0
 41
0.9715178624194301
 10
17.54752571146535
 20
11.34675603911618
 30
0.0
 41
0.9956879577346621
  0
ARC
  5
92
330
1F
100
AcDbEntity
  8
SETUP
100
AcDbCircle
 10
17.27876501711247
 20
11.21346054342725
 30
0.0
 40
0.3
100
AcDbArc
 50
26.37973325701044
 51
90.0
  0
LINE
  5
93
330
1F
100
AcDbEntity
  8
SETUP
100
AcDbLine
 10
17.27876501711247
 20
11.51346054342725
 30
0.0
 11
3.063082476901158
 21
11.51346054342723
 31
0.0
  0
POLYLINE
  5
94
330
1F
100
AcDbEntity
  8
SETUP
100
AcDb2dPolyline
 66
     1
 10
0.0
 20
0.0
 30
0.0
  0
VERTEX
  5
95
330
94
100
AcDbEntity
  8
SETUP
100
AcDbVertex
100
AcDb2dVertex
 10
3.063082476901158
 20
11.51346054342723
 30
0.0
  0
VERTEX
  5
96
330
94
100
AcDbEntity
  8
SETUP
100
AcDbVertex
100
AcDb2dVertex
 10
3.063082476901158
 20
7.213460543427236
 30
0.0
  0
SEQEND
  5
97
330
94
100
AcDbEntity
  8
SETUP
  0
LINE
  5
98
330
1F
100
AcDbEntity
  8
SETUP
100
AcDbLine
 10
3.063082476901158
 20
7.213460543427236
 30
0.0
 11
2.563082476901158
 21
7.213460543427236
 31
0.0
  0
LINE
  5
99
330
1F
100
AcDbEntity
  8
SETUP
100
AcDbLine
 10
2.563082476901158
 20
7.213460543427236
 30
0.0
 11
2.563082476901158
 21
6.81346054342723
 31
0.0
  0
LINE
  5
9A
330
1F
100
AcDbEntity
  8
SETUP
100
AcDbLine
 10
8.567184343880822
 20
6.813460543427218
 30
0.0
 11
9.06513341039096
 21
6.81346054342722
 31
0.0
  0
LINE
  5
9B
330
1F
100
AcDbEntity
  8
SETUP
100
AcDbLine
 10
9.06513341039096
 20
6.81346054342722
 30
0.0
 11
9.06513341039096
 21
7.213460543427218
 31
0.0
  0
LINE
  5
9C
330
1F
100
AcDbEntity
  8
SETUP
100
AcDbLine
 10
9.06513341039096
 20
7.213460543427218
 30
0.0
 11
8.567184343880829
 21
7.213460543427227
 31
0.0
  0
SPLINE
  5
9D
330
1F
100
AcDbEntity
  8
SETUP
100
AcDbSpline
210
0.0
220
0.0
230
1.0
 70
    12
 71
     2
 72
     6
 73
     3
 74
     0
 42
0.0000000001
 43
0.0000000001
 40
5.435185571433923
 40
5.435185571433923
 40
5.435185571433923
 40
9.940338474207211
 40
9.940338474207211
 40
9.940338474207211
 10
8.567184343880829
 20
7.213460543427228
 30
0.0
 41
0.9975442259276421
 10
8.611898209672717
 20
9.393402700644009
 30
0.0
 41
0.9726050550548876
 10
9.580690175826728
 20
11.34675603911618
 30
0.0
 41
0.9956879577346621
  0
ARC
  5
9E
330
1F
100
AcDbEntity
  8
SETUP
100
AcDbCircle
 10
9.849450870179606
 20
11.21346054342725
 30
0.0
 40
0.3
100
AcDbArc
 50
90.0
 51
153.6202667429894
  0
LINE
  5
9F
330
1F
100
AcDbEntity
  8
SETUP
100
AcDbLine
 10
9.849450870179606
 20
11.51346054342725
 30
0.0
 11
17.28081595060233
 21
11.51346054342725
 31
0.0
  0
ARC
  5
A0
330
1F
100
AcDbEntity
  8
SETUP
100
AcDbCircle
 10
17.28081595060233
 20
11.21346054342725
 30
0.0
 40
0.3
100
AcDbArc
 50
26.37973325701044
 51
90.0
  0
SPLINE
  5
A1
330
1F
100
AcDbEntity
  8
SETUP
100
AcDbSpline
210
0.0
220
0.0
230
1.0
 70
    12
 71
     2
 72
     6
 73
     3
 74
     0
 42
0.0000000001
 43
0.0000000001
 40
-9.940338474207211
 40
-9.940338474207211
 40
-9.940338474207211
 40
-5.435185571433923
 40
-5.435185571433923
 40
-5.435185571433923
 10
17.5495766449552
 20
11.34675603911618
 30
0.0
 41
0.9956879577346621
 10
18.51836861110922
 20
9.393402700644009
 30
0.0
 41
0.9726050550548876
 10
18.5630824769011
 20
7.213460543427228
 30
0.0
 41
0.9975442259276421
  0
LINE
  5
A2
330
1F
100
AcDbEntity
  8
SETUP
100
AcDbLine
 10
18.5630824769011
 20
7.213460543427227
 30
0.0
 11
18.06513341039097
 21
7.213460543427218
 31
0.0
  0
LINE
  5
A3
330
1F
100
AcDbEntity
  8
SETUP
100
AcDbLine
 10
18.06513341039097
 20
7.213460543427218
 30
0.0
 11
18.06513341039097
 21
6.81346054342722
 31
0.0
  0
LINE
  5
A4
330
1F
100
AcDbEntity
  8
SETUP
100
AcDbLine
 10
18.06513341039097
 20
6.81346054342722
 30
0.0
 11
18.56308247690111
 21
6.813460543427218
 31
0.0
  0
SPLINE
  5
A5
330
1F
100
AcDbEntity
  8
SETUP
100
AcDbSpline
210
0.0
220
0.0
230
1.0
 70
    12
 71
     2
 72
     6
 73
     3
 74
     0
 42
0.0000000001
 43
0.0000000001
 40
5.435185571433937
 40
5.435185571433937
 40
5.435185571433937
 40
9.940338474207211
 40
9.940338474207211
 40
9.940338474207211
 10
18.5630824769011
 20
6.813460543427218
 30
0.0
 41
0.9975442259276419
 10
18.51836861110922
 20
4.633518386210447
 30
0.0
 41
0.9726050550548876
 10
17.5495766449552
 20
2.680165047738278
 30
0.0
 41
0.9956879577346621
  0
ARC
  5
A6
330
1F
100
AcDbEntity
  8
SETUP
100
AcDbCircle
 10
17.28081595060233
 20
2.813460543427216
 30
0.0
 40
0.3
100
AcDbArc
 50
270.0
 51
333.6202667429896
  0
LINE
  5
A7
330
1F
100
AcDbEntity
  8
SETUP
100
AcDbLine
 10
17.28081595060233
 20
2.513460543427233
 30
0.0
 11
9.849450870179606
 21
2.513460543427216
 31
0.0
  0
ARC
  5
A8
330
1F
100
AcDbEntity
  8
SETUP
100
AcDbCircle
 10
9.849450870179606
 20
2.813460543427216
 30
0.0
 40
0.3
100
AcDbArc
 50
206.3797332570106
 51
270.0
  0
SPLINE
  5
A9
330
1F
100
AcDbEntity
  8
SETUP
100
AcDbSpline
210
0.0
220
0.0
230
1.0
 70
    12
 71
     2
 72
     6
 73
     3
 74
     0
 42
0.0000000001
 43
0.0000000001
 40
-9.940338474207211
 40
-9.940338474207211
 40
-9.940338474207211
 40
-5.435185571433937
 40
-5.435185571433937
 40
-5.435185571433937
 10
9.580690175826728
 20
2.680165047738278
 30
0.0
 41
0.9956879577346621
 10
8.611898209672717
 20
4.633518386210447
 30
0.0
 41
0.9726050550548876
 10
8.56718434388082
 20
6.813460543427218
 30
0.0
 41
0.9975442259276419
  0
CIRCLE
  5
AA
330
1F
100
AcDbEntity
  8
SETUP
100
AcDbCircle
 10
20.48901105291535
 20
7.013460543427223
 30
0.0
 40
0.1
  0
POLYLINE
  5
AB
330
1F
100
AcDbEntity
  8
SETUP
100
AcDb2dPolyline
 66
     1
 10
0.0
 20
0.0
 30
0.0
  0
VERTEX
  5
AC
330
AB
100
AcDbEntity
  8
SETUP
100
AcDbVertex
100
AcDb2dVertex
 10
19.33271473868559
 20
6.513460543427221
 30
0.0
  0
VERTEX
  5
AD
330
AB
100
AcDbEntity
  8
SETUP
100
AcDbVertex
100
AcDb2dVertex
 10
20.48901105291535
 20
6.513460543427219
 30
0.0
  0
SEQEND
  5
AE
330
AB
100
AcDbEntity
  8
SETUP
  0
ARC
  5
AF
330
1F
100
AcDbEntity
  8
SETUP
100
AcDbCircle
 10
20.48901105291535
 20
7.013460543427223
 30
0.0
 40
0.5000000000000036
100
AcDbArc
 50
270.0
 51
90.0
  0
POLYLINE
  5
B0
330
1F
100
AcDbEntity
  8
SETUP
100
AcDb2dPolyline
 66
     1
 10
0.0
 20
0.0
 30
0.0
  0
VERTEX
  5
B1
330
B0
100
AcDbEntity
  8
SETUP
100
AcDbVertex
100
AcDb2dVertex
 10
20.48901105291535
 20
7.513460543427226
 30
0.0
  0
VERTEX
  5
B2
330
B0
100
AcDbEntity
  8
SETUP
100
AcDbVertex
100
AcDb2dVertex
 10
19.3327147386856
 20
7.513460543427226
 30
0.0
  0
SEQEND
  5
B3
330
B0
100
AcDbEntity
  8
SETUP
  0
ARC
  5
B4
330
1F
100
AcDbEntity
  8
SETUP
100
AcDbCircle
 10
19.33271473868559
 20
7.813460543427227
 30
0.0
 40
0.3
100
AcDbArc
 50
184.3477705971016
 51
270.0000000000014
  0
ARC
  5
B5
330
1F
100
AcDbEntity
  8
SETUP
100
AcDbCircle
 10
8.810399972600202
 20
7.013460543427189
 30
0.0
 40
10.25268250430091
100
AcDbArc
 50
4.347770597100744
 51
28.17944049269999
  0
ARC
  5
B6
330
1F
100
AcDbEntity
  8
SETUP
100
AcDbCircle
 10
17.58342049186362
 20
11.71346054342726
 30
0.0
 40
0.3
100
AcDbArc
 50
28.17944049270007
 51
90.0
  0
LINE
  5
B7
330
1F
100
AcDbEntity
  8
SETUP
100
AcDbLine
 10
17.58342049186362
 20
12.01346054342726
 30
0.0
 11
3.063082476901158
 21
12.01346054342723
 31
0.0
  0
SPLINE
  5
B8
330
1F
100
AcDbEntity
  8
SETUP
100
AcDbSpline
210
0.0
220
0.0
230
1.0
 70
     8
 71
     3
 72
     9
 73
     5
 74
     0
 42
0.0000000001
 43
0.0000000001
 40
22.395270900154
 40
22.395270900154
 40
22.395270900154
 40
22.395270900154
 40
23.395270900154
 40
24.395270900154
 40
24.395270900154
 40
24.395270900154
 40
24.395270900154
 10
3.063082476901158
 20
12.01346054342723
 30
0.0
 10
2.446339985146984
 20
12.01346054342723
 30
0.0
 10
2.843433712612832
 20
8.389446610515837
 30
0.0
 10
2.063082476901158
 20
8.037984926326661
 30
0.0
 10
2.063082476901158
 20
7.013460543427233
 30
0.0
  0
SPLINE
  5
B9
330
1F
100
AcDbEntity
  8
SETUP
100
AcDbSpline
210
0.0
220
0.0
230
1.0
 70
     8
 71
     3
 72
     9
 73
     5
 74
     0
 42
0.0000000001
 43
0.0000000001
 40
24.395270900154
 40
24.395270900154
 40
24.395270900154
 40
24.395270900154
 40
25.395270900154
 40
26.395270900154
 40
26.395270900154
 40
26.395270900154
 40
26.395270900154
 10
2.063082476901158
 20
7.013460543427233
 30
0.0
 10
2.063082476901158
 20
5.988936160527804
 30
0.0
 10
2.843433712612832
 20
5.637474476338629
 30
0.0
 10
2.446339985146984
 20
2.013460543427233
 30
0.0
 10
3.063082476901158
 20
2.013460543427233
 30
0.0
  0
LINE
  5
BA
330
1F
100
AcDbEntity
  8
SETUP
100
AcDbLine
 10
3.063082476901158
 20
2.013460543427233
 30
0.0
 11
17.58342049186362
 21
2.013460543427205
 31
0.0
  0
ARC
  5
BB
330
1F
100
AcDbEntity
  8
SETUP
100
AcDbCircle
 10
17.58342049186362
 20
2.313460543427202
 30
0.0
 40
0.3
100
AcDbArc
 50
270.0
 51
331.8205595072999
  0
ARC
  5
BC
330
1F
100
AcDbEntity
  8
SETUP
100
AcDbCircle
 10
8.810399972600287
 20
7.013460543427246
 30
0.0
 40
10.25268250430083
100
AcDbArc
 50
331.8205595073
 51
355.6522294028993
  0
ARC
  5
BD
330
1F
100
AcDbEntity
  8
SETUP
100
AcDbCircle
 10
19.33271473868558
 20
6.21346054342722
 30
0.0
 40
0.3
100
AcDbArc
 50
89.99999999999933
 51
175.6522294029002
  0
CIRCLE
  5
BE
330
1F
100
AcDbEntity
  8
SETUP
100
AcDbCircle
 10
-3.342139017096864
 20
16.68300276846606
 30
0.0
 40
1.25
  0
CIRCLE
  5
BF
330
1F
100
AcDbEntity
  8
SETUP
100
AcDbCircle
 10
5.672605814931353
 20
16.68300276826493
 30
0.0
 40
0.0999999999999996
  0
LINE
  5
C0
330
1F
100
AcDbEntity
  8
SETUP
100
AcDbLine
 10
19.9930574963788
 20
19.57665431964978
 30
0.0
 11
19.78258400185079
 21
20.11260851021487
 31
0.0
  0
ARC
  5
C1
330
1F
100
AcDbEntity
  8
SETUP
100
AcDbCircle
 10
19.27850487883034
 20
19.91465260948975
 30
0.0
 40
0.5415554458196928
100
AcDbArc
 50
21.44033286360304
 51
90.00000000003345
  0
ARC
  5
C2
330
1F
100
AcDbEntity
  8
SETUP
100
AcDbCircle
 10
19.27850487883035
 20
19.91465260948975
 30
0.0
 40
0.5415554458196924
100
AcDbArc
 50
90.00000000003496
 51
158.559667136466
  0
LINE
  5
C3
330
1F
100
AcDbEntity
  8
SETUP
100
AcDbLine
 10
18.77442575580966
 20
20.11260851021426
 30
0.0
 11
18.50178966366943
 21
19.41836215672869
 31
0.0
  0
ARC
  5
C4
330
1F
100
AcDbEntity
  8
SETUP
100
AcDbCircle
 10
7.315791653558724
 20
131.9052140608316
 30
0.0
 40
113.0416666666667
100
AcDbArc
 50
264.3210225151163
 51
275.6789774848853
  0
LINE
  5
C5
330
1F
100
AcDbEntity
  8
SETUP
100
AcDbLine
 10
-3.870206356548806
 20
19.41836215672836
 30
0.0
 11
-4.142842448688071
 21
20.1126085102147
 31
0.0
  0
ARC
  5
C6
330
1F
100
AcDbEntity
  8
SETUP
100
AcDbCircle
 10
-4.646921571708647
 20
19.9146526094899
 30
0.0
 40
0.5415554458196886
100
AcDbArc
 50
21.44033286356768
 51
89.99999999999896
  0
ARC
  5
C7
330
1F
100
AcDbEntity
  8
SETUP
100
AcDbCircle
 10
-4.646921571708641
 20
19.9146526094899
 30
0.0
 40
0.5415554458196888
100
AcDbArc
 50
89.99999999999953
 51
158.5596671364307
  0
LINE
  5
C8
330
1F
100
AcDbEntity
  8
SETUP
100
AcDbLine
 10
-5.151000694729211
 20
20.11260851021472
 30
0.0
 11
-5.361474189256371
 21
19.57665431964924
 31
0.0
  0
ARC
  5
C9
330
1F
100
AcDbEntity
  8
SETUP
100
AcDbCircle
 10
7.315791653558724
 20
131.9052140608316
 30
0.0
 40
113.0416666666667
100
AcDbArc
 50
263.3962686511309
 51
263.5609135959126
  0
LINE
  5
CA
330
1F
100
AcDbEntity
  8
SETUP
100
AcDbLine
 10
-5.684208346441226
 20
19.61354739416486
 30
0.0
 11
-5.684208346440238
 21
20.61354739416501
 31
0.0
  0
ARC
  5
CB
330
1F
100
AcDbEntity
  8
SETUP
100
AcDbCircle
 10
7.315791653558547
 20
-91.67811927250233
 30
0.0
 40
113.0416666666672
100
AcDbArc
 50
91.0137637000403
 51
96.60373134886936
  0
SPLINE
  5
CC
330
1F
100
AcDbEntity
  8
SETUP
100
AcDbSpline
210
0.0
220
0.0
230
1.0
 70
     8
 71
     3
 72
     9
 73
     5
 74
     0
 42
0.0000000001
 43
0.0000000001
 40
-2.0
 40
-2.0
 40
-2.0
 40
-2.0
 40
-1.0
 40
0.0
 40
0.0
 40
0.0
 40
0.0
 10
5.315791653559147
 20
21.34585341815254
 30
0.0
 10
6.730290357683627
 20
21.45933879195363
 30
0.0
 10
7.268398725306822
 20
22.98141674608781
 30
0.0
 10
7.167362742697746
 20
26.05377600703202
 30
0.0
 10
7.315791653559129
 20
26.77266228542644
 30
0.0
  0
SPLINE
  5
CD
330
1F
100
AcDbEntity
  8
SETUP
100
AcDbSpline
210
0.0
220
0.0
230
1.0
 70
     8
 71
     3
 72
     9
 73
     5
 74
     0
 42
0.0000000001
 43
0.0000000001
 40
0.0
 40
0.0
 40
0.0
 40
0.0
 40
1.0
 40
2.0
 40
2.0
 40
2.0
 40
2.0
 10
7.315791653559129
 20
26.77266228542644
 30
0.0
 10
7.464220564420222
 20
26.05377600703196
 30
0.0
 10
7.363184581809888
 20
22.98141674608779
 30
0.0
 10
7.901292949432458
 20
21.4593387919534
 30
0.0
 10
9.315791653559058
 20
21.34585341815253
 30
0.0
  0
ARC
  5
CE
330
1F
100
AcDbEntity
  8
SETUP
100
AcDbCircle
 10
7.315791653558547
 20
-91.67811927250233
 30
0.0
 40
113.0416666666672
100
AcDbArc
 50
83.3962686511294
 51
88.98623629995915
  0
LINE
  5
CF
330
1F
100
AcDbEntity
  8
SETUP
100
AcDbLine
 10
20.31579165355976
 20
20.61354739416474
 30
0.0
 11
20.31579165356058
 21
19.61354739416512
 31
0.0
  0
ARC
  5
D0
330
1F
100
AcDbEntity
  8
SETUP
100
AcDbCircle
 10
7.315791651624842
 20
131.905214077737
 30
0.0
 40
113.0416666836824
100
AcDbArc
 50
276.439086404103
 51
276.6037313488592
  0
ARC
  5
D1
330
1F
100
AcDbEntity
  8
SETUP
100
AcDbCircle
 10
-16.95307380260908
 20
-102.9285474426696
 30
0.0
 40
113.0416666666672
100
AcDbArc
 50
83.39626865112952
 51
84.72679460071606
  0
POLYLINE
  5
D2
330
1F
100
AcDbEntity
  8
SETUP
100
AcDb2dPolyline
 66
     1
 10
0.0
 20
0.0
 30
0.0
  0
VERTEX
  5
D3
330
D2
100
AcDbEntity
  8
SETUP
100
AcDbVertex
100
AcDb2dVertex
 10
-3.953073802609019
 20
9.363119223997575
 30
0.0
  0
VERTEX
  5
D4
330
D2
100
AcDbEntity
  8
SETUP
100
AcDbVertex
100
AcDb2dVertex
 10
-3.953073802607214
 20
8.363119223997781
 30
0.0
  0
SEQEND
  5
D5
330
D2
100
AcDbEntity
  8
SETUP
  0
ARC
  5
D6
330
1F
100
AcDbEntity
  8
SETUP
100
AcDbCircle
 10
-16.9530738026089
 20
120.6547858906642
 30
0.0
 40
113.0416666666667
100
AcDbArc
 50
275.2732053992844
 51
276.6037313488715
  0
POLYLINE
  5
D7
330
1F
100
AcDbEntity
  8
SETUP
100
AcDb2dPolyline
 66
     1
 10
0.0
 20
0.0
 30
0.0
  0
VERTEX
  5
D8
330
D7
100
AcDbEntity
  8
SETUP
100
AcDbVertex
100
AcDb2dVertex
 10
-6.563988163405943
 20
8.091535660586576
 30
0.0
  0
VERTEX
  5
D9
330
D7
100
AcDbEntity
  8
SETUP
100
AcDbVertex
100
AcDb2dVertex
 10
-6.56398816340594
 20
9.634702787408564
 30
0.0
  0
SEQEND
  5
DA
330
D7
100
AcDbEntity
  8
SETUP
  0
CIRCLE
  5
DB
330
1F
100
AcDbEntity
  8
SETUP
100
AcDbCircle
 10
-4.990360577338556
 20
8.664224439322592
 30
0.0
 40
0.0999999999999996
  0
ARC
  5
DC
330
1F
100
AcDbEntity
  8
SETUP
100
AcDbCircle
 10
-16.95307380260908
 20
-100.8016368152483
 30
0.0
 40
113.0416666666672
100
AcDbArc
 50
83.3962686511297
 51
84.72679460071625
  0
POLYLINE
  5
DD
330
1F
100
AcDbEntity
  8
SETUP
100
AcDb2dPolyline
 66
     1
 10
0.0
 20
0.0
 30
0.0
  0
VERTEX
  5
DE
330
DD
100
AcDbEntity
  8
SETUP
100
AcDbVertex
100
AcDb2dVertex
 10
-3.953073802609019
 20
11.4900298514189
 30
0.0
  0
VERTEX
  5
DF
330
DD
100
AcDbEntity
  8
SETUP
100
AcDbVertex
100
AcDb2dVertex
 10
-3.953073802607214
 20
10.49002985141911
 30
0.0
  0
SEQEND
  5
E0
330
DD
100
AcDbEntity
  8
SETUP
  0
ARC
  5
E1
330
1F
100
AcDbEntity
  8
SETUP
100
AcDbCircle
 10
-16.9530738026089
 20
122.7816965180856
 30
0.0
 40
113.0416666666667
100
AcDbArc
 50
275.2732053992844
 51
276.6037313488715
  0
POLYLINE
  5
E2
330
1F
100
AcDbEntity
  8
SETUP
100
AcDb2dPolyline
 66
     1
 10
0.0
 20
0.0
 30
0.0
  0
VERTEX
  5
E3
330
E2
100
AcDbEntity
  8
SETUP
100
AcDbVertex
100
AcDb2dVertex
 10
-6.563988163405943
 20
10.2184462880079
 30
0.0
  0
VERTEX
  5
E4
330
E2
100
AcDbEntity
  8
SETUP
100
AcDbVertex
100
AcDb2dVertex
 10
-6.56398816340594
 20
11.76161341482989
 30
0.0
  0
SEQEND
  5
E5
330
E2
100
AcDbEntity
  8
SETUP
  0
CIRCLE
  5
E6
330
1F
100
AcDbEntity
  8
SETUP
100
AcDbCircle
 10
-4.990360577338556
 20
10.79113506674392
 30
0.0
 40
0.0999999999999996
  0
ARC
  5
E7
330
1F
100
AcDbEntity
  8
SETUP
100
AcDbCircle
 10
-16.95307380260908
 20
-98.74806793360011
 30
0.0
 40
113.0416666666672
100
AcDbArc
 50
83.3962686511297
 51
84.72679460071625
  0
POLYLINE
  5
E8
330
1F
100
AcDbEntity
  8
SETUP
100
AcDb2dPolyline
 66
     1
 10
0.0
 20
0.0
 30
0.0
  0
VERTEX
  5
E9
330
E8
100
AcDbEntity
  8
SETUP
100
AcDbVertex
100
AcDb2dVertex
 10
-3.953073802609019
 20
13.54359873306708
 30
0.0
  0
VERTEX
  5
EA
330
E8
100
AcDbEntity
  8
SETUP
100
AcDbVertex
100
AcDb2dVertex
 10
-3.953073802607214
 20
12.54359873306729
 30
0.0
  0
SEQEND
  5
EB
330
E8
100
AcDbEntity
  8
SETUP
  0
ARC
  5
EC
330
1F
100
AcDbEntity
  8
SETUP
100
AcDbCircle
 10
-16.9530738026089
 20
124.8352653997337
 30
0.0
 40
113.0416666666667
100
AcDbArc
 50
275.2732053992844
 51
276.6037313488715
  0
POLYLINE
  5
ED
330
1F
100
AcDbEntity
  8
SETUP
100
AcDb2dPolyline
 66
     1
 10
0.0
 20
0.0
 30
0.0
  0
VERTEX
  5
EE
330
ED
100
AcDbEntity
  8
SETUP
100
AcDbVertex
100
AcDb2dVertex
 10
-6.563988163405943
 20
12.27201516965608
 30
0.0
  0
VERTEX
  5
EF
330
ED
100
AcDbEntity
  8
SETUP
100
AcDbVertex
100
AcDb2dVertex
 10
-6.56398816340594
 20
13.81518229647807
 30
0.0
  0
SEQEND
  5
F0
330
ED
100
AcDbEntity
  8
SETUP
  0
CIRCLE
  5
F1
330
1F
100
AcDbEntity
  8
SETUP
100
AcDbCircle
 10
-4.990360577338556
 20
12.8447039483921
 30
0.0
 40
0.0999999999999996
  0
ARC
  5
F2
330
1F
100
AcDbEntity
  8
SETUP
100
AcDbCircle
 10
-16.95307380260908
 20
-104.9138013261333
 30
0.0
 40
113.0416666666672
100
AcDbArc
 50
83.3962686511297
 51
84.72679460071625
  0
POLYLINE
  5
F3
330
1F
100
AcDbEntity
  8
SETUP
100
AcDb2dPolyline
 66
     1
 10
0.0
 20
0.0
 30
0.0
  0
VERTEX
  5
F4
330
F3
100
AcDbEntity
  8
SETUP
100
AcDbVertex
100
AcDb2dVertex
 10
-3.953073802609019
 20
7.377865340533873
 30
0.0
  0
VERTEX
  5
F5
330
F3
100
AcDbEntity
  8
SETUP
100
AcDbVertex
100
AcDb2dVertex
 10
-3.953073802607214
 20
6.377865340534079
 30
0.0
  0
SEQEND
  5
F6
330
F3
100
AcDbEntity
  8
SETUP
  0
ARC
  5
F7
330
1F
100
AcDbEntity
  8
SETUP
100
AcDbCircle
 10
-16.9530738026089
 20
118.6695320072005
 30
0.0
 40
113.0416666666667
100
AcDbArc
 50
275.2732053992842
 51
276.6037313488713
  0
POLYLINE
  5
F8
330
1F
100
AcDbEntity
  8
SETUP
100
AcDb2dPolyline
 66
     1
 10
0.0
 20
0.0
 30
0.0
  0
VERTEX
  5
F9
330
F8
100
AcDbEntity
  8
SETUP
100
AcDbVertex
100
AcDb2dVertex
 10
-6.563988163405943
 20
6.106281777122874
 30
0.0
  0
VERTEX
  5
FA
330
F8
100
AcDbEntity
  8
SETUP
100
AcDbVertex
100
AcDb2dVertex
 10
-6.56398816340594
 20
7.649448903944862
 30
0.0
  0
SEQEND
  5
FB
330
F8
100
AcDbEntity
  8
SETUP
  0
CIRCLE
  5
FC
330
1F
100
AcDbEntity
  8
SETUP
100
AcDbCircle
 10
-4.990360577338556
 20
6.678970555858889
 30
0.0
 40
0.0999999999999996
  0
POLYLINE
  5
FD
330
1F
100
AcDbEntity
  8
SETUP
100
AcDb2dPolyline
 66
     1
 10
0.0
 20
0.0
 30
0.0
  0
VERTEX
  5
FE
330
FD
100
AcDbEntity
  8
SETUP
100
AcDbVertex
100
AcDb2dVertex
 10
0.3522943393615812
 20
12.88852260173414
 30
0.0
  0
VERTEX
  5
FF
330
FD
100
AcDbEntity
  8
SETUP
100
AcDbVertex
100
AcDb2dVertex
 10
0.7522943386571495
 20
12.88852260173414
 30
0.0
  0
VERTEX
  5
100
330
FD
100
AcDbEntity
  8
SETUP
100
AcDbVertex
100
AcDb2dVertex
 10
0.7522943386571495
 20
13.28852328935009
 30
0.0
  0
VERTEX
  5
101
330
FD
100
AcDbEntity
  8
SETUP
100
AcDbVertex
100
AcDb2dVertex
 10
0.3522943393615812
 20
13.28852328935009
 30
0.0
  0
VERTEX
  5
102
330
FD
100
AcDbEntity
  8
SETUP
100
AcDbVertex
100
AcDb2dVertex
 10
0.3522943393615812
 20
12.88852260173414
 30
0.0
  0
SEQEND
  5
103
330
FD
100
AcDbEntity
  8
SETUP
  0
POLYLINE
  5
104
330
1F
100
AcDbEntity
  8
SETUP
100
AcDb2dPolyline
 66
     1
 10
0.0
 20
0.0
 30
0.0
  0
VERTEX
  5
105
330
104
100
AcDbEntity
  8
SETUP
100
AcDbVertex
100
AcDb2dVertex
 10
0.3522943393615812
 20
-9.298150609354686
 30
0.0
  0
VERTEX
  5
106
330
104
100
AcDbEntity
  8
SETUP
100
AcDbVertex
100
AcDb2dVertex
 10
0.7522943386571495
 20
-9.298150609354686
 30
0.0
  0
VERTEX
  5
107
330
104
100
AcDbEntity
  8
SETUP
100
AcDbVertex
100
AcDb2dVertex
 10
0.7522943386571495
 20
-9.698151296970632
 30
0.0
  0
VERTEX
  5
108
330
104
100
AcDbEntity
  8
SETUP
100
AcDbVertex
100
AcDb2dVertex
 10
0.3522943393615812
 20
-9.698151296970632
 30
0.0
  0
VERTEX
  5
109
330
104
100
AcDbEntity
  8
SETUP
100
AcDbVertex
100
AcDb2dVertex
 10
0.3522943393615812
 20
-9.298150609354686
 30
0.0
  0
SEQEND
  5
10A
330
104
100
AcDbEntity
  8
SETUP
  0
POLYLINE
  5
10B
330
1F
100
AcDbEntity
  8
SETUP
100
AcDb2dPolyline
 66
     1
 10
0.0
 20
0.0
 30
0.0
  0
VERTEX
  5
10C
330
10B
100
AcDbEntity
  8
SETUP
100
AcDbVertex
100
AcDb2dVertex
 10
27.62549316427024
 20
27.77633937380934
 30
0.0
  0
VERTEX
  5
10D
330
10B
100
AcDbEntity
  8
SETUP
100
AcDbVertex
100
AcDb2dVertex
 10
28.02549316356581
 20
27.77633937380934
 30
0.0
  0
VERTEX
  5
10E
330
10B
100
AcDbEntity
  8
SETUP
100
AcDbVertex
100
AcDb2dVertex
 10
28.02549316356581
 20
28.17634006142529
 30
0.0
  0
VERTEX
  5
10F
330
10B
100
AcDbEntity
  8
SETUP
100
AcDbVertex
100
AcDb2dVertex
 10
27.62549316427024
 20
28.17634006142529
 30
0.0
  0
VERTEX
  5
110
330
10B
100
AcDbEntity
  8
SETUP
100
AcDbVertex
100
AcDb2dVertex
 10
27.62549316427024
 20
27.77633937380934
 30
0.0
  0
SEQEND
  5
111
330
10B
100
AcDbEntity
  8
SETUP
  0
POLYLINE
  5
112
330
1F
100
AcDbEntity
  8
SETUP
100
AcDb2dPolyline
 66
     1
 10
0.0
 20
0.0
 30
0.0
  0
VERTEX
  5
113
330
112
100
AcDbEntity
  8
SETUP
100
AcDbVertex
100
AcDb2dVertex
 10
27.62549316427024
 20
5.589666162720508
 30
0.0
  0
VERTEX
  5
114
330
112
100
AcDbEntity
  8
SETUP
100
AcDbVertex
100
AcDb2dVertex
 10
28.02549316356581
 20
5.589666162720508
 30
0.0
  0
VERTEX
  5
115
330
112
100
AcDbEntity
  8
SETUP
100
AcDbVertex
100
AcDb2dVertex
 10
28.02549316356581
 20
5.189665475104562
 30
0.0
  0
VERTEX
  5
116
330
112
100
AcDbEntity
  8
SETUP
100
AcDbVertex
100
AcDb2dVertex
 10
27.62549316427024
 20
5.189665475104562
 30
0.0
  0
VERTEX
  5
117
330
112
100
AcDbEntity
  8
SETUP
100
AcDbVertex
100
AcDb2dVertex
 10
27.62549316427024
 20
5.589666162720508
 30
0.0
  0
SEQEND
  5
118
330
112
100
AcDbEntity
  8
SETUP
  0
POLYLINE
  5
119
330
1F
100
AcDbEntity
  8
SETUP
100
AcDb2dPolyline
 66
     1
 10
0.0
 20
0.0
 30
0.0
  0
VERTEX
  5
11A
330
119
100
AcDbEntity
  8
SETUP
100
AcDbVertex
100
AcDb2dVertex
 10
23.49013907943675
 20
10.91677032707477
 30
0.0
  0
VERTEX
  5
11B
330
119
100
AcDbEntity
  8
SETUP
100
AcDbVertex
100
AcDb2dVertex
 10
23.89013907873232
 20
10.91677032707477
 30
0.0
  0
VERTEX
  5
11C
330
119
100
AcDbEntity
  8
SETUP
100
AcDbVertex
100
AcDb2dVertex
 10
23.89013907873232
 20
11.31677101469072
 30
0.0
  0
VERTEX
  5
11D
330
119
100
AcDbEntity
  8
SETUP
100
AcDbVertex
100
AcDb2dVertex
 10
23.49013907943675
 20
11.31677101469072
 30
0.0
  0
VERTEX
  5
11E
330
119
100
AcDbEntity
  8
SETUP
100
AcDbVertex
100
AcDb2dVertex
 10
23.49013907943675
 20
10.91677032707477
 30
0.0
  0
SEQEND
  5
11F
330
119
100
AcDbEntity
  8
SETUP
  0
POLYLINE
  5
120
330
1F
100
AcDbEntity
  8
SETUP
100
AcDb2dPolyline
 66
     1
 10
0.0
 20
0.0
 30
0.0
  0
VERTEX
  5
121
330
120
100
AcDbEntity
  8
SETUP
100
AcDbVertex
100
AcDb2dVertex
 10
23.49013907943675
 20
-11.26990288401406
 30
0.0
  0
VERTEX
  5
122
330
120
100
AcDbEntity
  8
SETUP
100
AcDbVertex
100
AcDb2dVertex
 10
23.89013907873232
 20
-11.26990288401406
 30
0.0
  0
VERTEX
  5
123
330
120
100
AcDbEntity
  8
SETUP
100
AcDbVertex
100
AcDb2dVertex
 10
23.89013907873232
 20
-11.66990357163001
 30
0.0
  0
VERTEX
  5
124
330
120
100
AcDbEntity
  8
SETUP
100
AcDbVertex
100
AcDb2dVertex
 10
23.49013907943675
 20
-11.66990357163001
 30
0.0
  0
VERTEX
  5
125
330
120
100
AcDbEntity
  8
SETUP
100
AcDbVertex
100
AcDb2dVertex
 10
23.49013907943675
 20
-11.26990288401406
 30
0.0
  0
SEQEND
  5
126
330
120
100
AcDbEntity
  8
SETUP
  0
ARC
  5
127
330
1F
100
AcDbEntity
  8
SETUP
100
AcDbCircle
 10
-7.280299143062062
 20
2.005958900511117
 30
0.0
 40
0.075
100
AcDbArc
 50
90.00000000001697
 51
169.6662817405391
  0
POLYLINE
  5
128
330
1F
100
AcDbEntity
  8
SETUP
100
AcDb2dPolyline
 66
     1
 10
0.0
 20
0.0
 30
0.0
  0
VERTEX
  5
129
330
128
100
AcDbEntity
  8
SETUP
100
AcDbVertex
100
AcDb2dVertex
 10
-7.280299143062084
 20
2.080958900511118
 30
0.0
  0
VERTEX
  5
12A
330
128
100
AcDbEntity
  8
SETUP
100
AcDbVertex
100
AcDb2dVertex
 10
-4.649355161595464
 20
2.08095890051113
 30
0.0
  0
VERTEX
  5
12B
330
128
100
AcDbEntity
  8
SETUP
100
AcDbVertex
100
AcDb2dVertex
 10
-4.649355161595464
 20
2.48095890051113
 30
0.0
  0
VERTEX
  5
12C
330
128
100
AcDbEntity
  8
SETUP
100
AcDbVertex
100
AcDb2dVertex
 10
-7.019818607199363
 20
2.48095890051113
 30
0.0
  0
SEQEND
  5
12D
330
128
100
AcDbEntity
  8
SETUP
  0
ARC
  5
12E
330
1F
100
AcDbEntity
  8
SETUP
100
AcDbCircle
 10
-7.019818607199337
 20
2.55595890051113
 30
0.0
 40
0.075
100
AcDbArc
 50
139.6491568507655
 51
269.9999999999803
  0
ARC
  5
12F
330
1F
100
AcDbEntity
  8
SETUP
100
AcDbCircle
 10
-6.124358062239346
 20
1.795185996189737
 30
0.0
 40
1.249999999799851
100
AcDbArc
 50
89.99999999999861
 51
139.6491568507655
  0
ARC
  5
130
330
1F
100
AcDbEntity
  8
SETUP
100
AcDbCircle
 10
-6.124358062238029
 20
5.045185995989571
 30
0.0
 40
1.999999999999982
100
AcDbArc
 50
269.9999999999631
 51
311.9587552969791
  0
SPLINE
  5
131
330
1F
100
AcDbEntity
  8
SETUP
100
AcDbSpline
210
0.0
220
0.0
230
1.0
 70
    12
 71
     3
 72
    11
 73
     7
 74
     0
 42
0.0000000001
 43
0.0000000001
 40
0.0683991490523112
 40
0.0683991490523112
 40
0.0683991490523112
 40
0.0683991490523112
 40
0.9187432018119346
 40
0.9187432018119346
 40
0.9187432018119346
 40
0.9759947717667035
 40
0.9759947717667035
 40
0.9759947717667035
 40
0.9759947717667035
 10
-4.787167110491236
 20
3.557933375024849
 30
0.0
 41
1.0
 10
-2.393836202758392
 20
5.709780606116214
 30
0.0
 41
1.0
 10
-1.124976119685506
 20
8.234540722246992
 30
0.0
 41
1.0
 10
-0.2519690808217945
 20
12.51788500544743
 30
0.0
 41
1.0
 10
-0.1929893675222832
 20
12.80624202347735
 30
0.0
 41
0.9999568079355868
 10
-0.1382008730524702
 20
13.09541245590888
 30
0.0
 41
0.9999568079355868
 10
-0.0848968964934875
 20
13.38486978556371
 30
0.0
 41
1.0
  0
ARC
  5
132
330
1F
100
AcDbEntity
  8
SETUP
100
AcDbCircle
 10
0.4069941665351546
 20
13.2951859959886
 30
0.0
 40
0.5
100
AcDbArc
 50
90.0
 51
169.6670747444177
  0
LINE
  5
133
330
1F
100
AcDbEntity
  8
SETUP
100
AcDbLine
 10
0.4069941665351546
 20
13.7951859959886
 30
0.0
 11
0.9880900398935903
 21
13.7951859959886
 31
0.0
  0
SPLINE
  5
134
330
1F
100
AcDbEntity
  8
SETUP
100
AcDbSpline
210
0.0
220
0.0
230
1.0
 70
     8
 71
     3
 72
     9
 73
     5
 74
     0
 42
0.0000000001
 43
0.0000000001
 40
-2.0
 40
-2.0
 40
-2.0
 40
-2.0
 40
-0.9999999999810663
 40
0.0
 40
0.0
 40
0.0
 40
0.0
 10
0.9880900398935903
 20
13.7951859959886
 30
0.0
 10
0.9880900398935903
 20
11.67277125168062
 30
0.0
 10
-0.8742846254101568
 20
6.06011050876522
 30
0.0
 10
-2.099536721674644
 20
3.565594622966017
 30
0.0
 10
-2.099536721721043
 20
1.795185996189729
 30
0.0
  0
SPLINE
  5
135
330
1F
100
AcDbEntity
  8
SETUP
100
AcDbSpline
210
0.0
220
0.0
230
1.0
 70
     8
 71
     3
 72
     9
 73
     5
 74
     0
 42
0.0000000001
 43
0.0000000001
 40
0.0
 40
0.0
 40
0.0
 40
0.0
 40
0.9999999999810663
 40
2.0
 40
2.0
 40
2.0
 40
2.0
 10
-2.099536721721043
 20
1.795185996189729
 30
0.0
 10
-2.099536721674644
 20
0.0247773694134406
 30
0.0
 10
-0.8742846254101568
 20
-2.469738516385762
 30
0.0
 10
0.9880900398935903
 20
-8.082399259301157
 30
0.0
 10
0.9880900398935903
 20
-10.20481400360915
 30
0.0
  0
LINE
  5
136
330
1F
100
AcDbEntity
  8
SETUP
100
AcDbLine
 10
0.9880900398935903
 20
-10.20481400360915
 30
0.0
 11
0.4069941665351546
 21
-10.20481400360915
 31
0.0
  0
ARC
  5
137
330
1F
100
AcDbEntity
  8
SETUP
100
AcDbCircle
 10
0.4069941665351546
 20
-9.704814003609146
 30
0.0
 40
0.5
100
AcDbArc
 50
190.3329252555823
 51
270.0
  0
SPLINE
  5
138
330
1F
100
AcDbEntity
  8
SETUP
100
AcDbSpline
210
0.0
220
0.0
230
1.0
 70
    12
 71
     3
 72
    11
 73
     7
 74
     0
 42
0.0000000001
 43
0.0000000001
 40
-0.9759947717667035
 40
-0.9759947717667035
 40
-0.9759947717667035
 40
-0.9759947717667035
 40
-0.9187432018119346
 40
-0.9187432018119346
 40
-0.9187432018119346
 40
-0.0683991490523112
 40
-0.0683991490523112
 40
-0.0683991490523112
 40
-0.0683991490523112
 10
-0.0848968964934875
 20
-9.794497793184254
 30
0.0
 41
1.0
 10
-0.1382008730524702
 20
-9.505040463529422
 30
0.0
 41
0.9999568079355868
 10
-0.1929893675222832
 20
-9.21587003109789
 30
0.0
 41
0.9999568079355868
 10
-0.2519690808217945
 20
-8.927513013067967
 30
0.0
 41
1.0
 10
-1.124976119685506
 20
-4.644168729867534
 30
0.0
 41
1.0
 10
-2.393836202758392
 20
-2.119408613736756
 30
0.0
 41
1.0
 10
-4.787167110491223
 20
0.032438617354607
 30
0.0
 41
1.0
  0
ARC
  5
139
330
1F
100
AcDbEntity
  8
SETUP
100
AcDbCircle
 10
-6.124358062238036
 20
-1.454814003610122
 30
0.0
 40
2.000000000000001
100
AcDbArc
 50
48.04124470302067
 51
90.00000000003722
  0
ARC
  5
13A
330
1F
100
AcDbEntity
  8
SETUP
100
AcDbCircle
 10
-6.124358062239344
 20
1.795185996189791
 30
0.0
 40
1.249999999799913
100
AcDbArc
 50
220.3508431492366
 51
270.000000000008
  0
ARC
  5
13B
330
1F
100
AcDbEntity
  8
SETUP
100
AcDbCircle
 10
-7.019818607199364
 20
1.034413091868338
 30
0.0
 40
0.075
100
AcDbArc
 50
90.0
 51
220.3508431492473
  0
POLYLINE
  5
13C
330
1F
100
AcDbEntity
  8
SETUP
100
AcDb2dPolyline
 66
     1
 10
0.0
 20
0.0
 30
0.0
  0
VERTEX
  5
13D
330
13C
100
AcDbEntity
  8
SETUP
100
AcDbVertex
100
AcDb2dVertex
 10
-7.019818607199364
 20
1.109413091868338
 30
0.0
  0
VERTEX
  5
13E
330
13C
100
AcDbEntity
  8
SETUP
100
AcDbVertex
100
AcDb2dVertex
 10
-4.649355161595464
 20
1.109413091868338
 30
0.0
  0
VERTEX
  5
13F
330
13C
100
AcDbEntity
  8
SETUP
100
AcDbVertex
100
AcDb2dVertex
 10
-4.649355161595464
 20
1.509413091868338
 30
0.0
  0
VERTEX
  5
140
330
13C
100
AcDbEntity
  8
SETUP
100
AcDbVertex
100
AcDb2dVertex
 10
-7.280299143062086
 20
1.509413091868338
 30
0.0
  0
SEQEND
  5
141
330
13C
100
AcDbEntity
  8
SETUP
  0
ARC
  5
142
330
1F
100
AcDbEntity
  8
SETUP
100
AcDbCircle
 10
-7.280299143062086
 20
1.584413091868338
 30
0.0
 40
0.075
100
AcDbArc
 50
190.3337182594616
 51
270.0
  0
ARC
  5
143
330
1F
100
AcDbEntity
  8
SETUP
100
AcDbCircle
 10
-6.124358062239002
 20
1.795185996189661
 30
0.0
 40
1.249999999800206
100
AcDbArc
 50
169.6662817405419
 51
190.3337182594519
  0
POLYLINE
  5
144
330
1F
100
AcDbEntity
  8
SETUP
100
AcDb2dPolyline
 66
     1
 10
0.0
 20
0.0
 30
0.0
  0
VERTEX
  5
145
330
144
100
AcDbEntity
  8
SETUP
100
AcDbVertex
100
AcDb2dVertex
 10
3.396276254672681
 20
29.42606045268099
 30
0.0
  0
VERTEX
  5
146
330
144
100
AcDbEntity
  8
SETUP
100
AcDbVertex
100
AcDb2dVertex
 10
3.396276254672681
 20
29.82606045197656
 30
0.0
  0
VERTEX
  5
147
330
144
100
AcDbEntity
  8
SETUP
100
AcDbVertex
100
AcDb2dVertex
 10
2.996275567056731
 20
29.82606045197656
 30
0.0
  0
VERTEX
  5
148
330
144
100
AcDbEntity
  8
SETUP
100
AcDbVertex
100
AcDb2dVertex
 10
2.996275567056731
 20
29.42606045268099
 30
0.0
  0
VERTEX
  5
149
330
144
100
AcDbEntity
  8
SETUP
100
AcDbVertex
100
AcDb2dVertex
 10
3.396276254672681
 20
29.42606045268099
 30
0.0
  0
SEQEND
  5
14A
330
144
100
AcDbEntity
  8
SETUP
  0
ARC
  5
14B
330
1F
100
AcDbEntity
  8
SETUP
100
AcDbCircle
 10
14.2788399558957
 20
21.79346697025735
 30
0.0
 40
0.075
100
AcDbArc
 50
180.0000000000163
 51
259.6662817405395
  0
POLYLINE
  5
14C
330
1F
100
AcDbEntity
  8
SETUP
100
AcDb2dPolyline
 66
     1
 10
0.0
 20
0.0
 30
0.0
  0
VERTEX
  5
14D
330
14C
100
AcDbEntity
  8
SETUP
100
AcDbVertex
100
AcDb2dVertex
 10
14.20383995589571
 20
21.79346697025733
 30
0.0
  0
VERTEX
  5
14E
330
14C
100
AcDbEntity
  8
SETUP
100
AcDbVertex
100
AcDb2dVertex
 10
14.20383995589569
 20
24.42441095172395
 30
0.0
  0
VERTEX
  5
14F
330
14C
100
AcDbEntity
  8
SETUP
100
AcDbVertex
100
AcDb2dVertex
 10
13.80383995589569
 20
24.42441095172395
 30
0.0
  0
VERTEX
  5
150
330
14C
100
AcDbEntity
  8
SETUP
100
AcDbVertex
100
AcDb2dVertex
 10
13.80383995589569
 20
22.05394750612005
 30
0.0
  0
SEQEND
  5
151
330
14C
100
AcDbEntity
  8
SETUP
  0
ARC
  5
152
330
1F
100
AcDbEntity
  8
SETUP
100
AcDbCircle
 10
13.72883995589569
 20
22.05394750612007
 30
0.0
 40
0.075
100
AcDbArc
 50
229.6491568507656
 51
359.999999999981
  0
ARC
  5
153
330
1F
100
AcDbEntity
  8
SETUP
100
AcDbCircle
 10
14.48961286021708
 20
22.94940805108007
 30
0.0
 40
1.249999999799851
100
AcDbArc
 50
179.9999999999987
 51
229.6491568507656
  0
ARC
  5
154
330
1F
100
AcDbEntity
  8
SETUP
100
AcDbCircle
 10
11.23961286041725
 20
22.94940805108138
 30
0.0
 40
1.999999999999982
100
AcDbArc
 50
359.9999999999631
 51
41.95875529697899
  0
SPLINE
  5
155
330
1F
100
AcDbEntity
  8
SETUP
100
AcDbSpline
210
0.0
220
0.0
230
1.0
 70
    12
 71
     3
 72
    11
 73
     7
 74
     0
 42
0.0000000001
 43
0.0000000001
 40
0.0683991490523112
 40
0.0683991490523112
 40
0.0683991490523112
 40
0.0683991490523112
 40
0.9187432018119346
 40
0.9187432018119346
 40
0.9187432018119346
 40
0.9759947717667035
 40
0.9759947717667035
 40
0.9759947717667035
 40
0.9759947717667035
 10
12.72686548138197
 20
24.28659900282817
 30
0.0
 41
1.0
 10
10.57501825029061
 20
26.67992991056102
 30
0.0
 41
1.0
 10
8.05025813415983
 20
27.94878999363391
 30
0.0
 41
1.0
 10
3.766913850959401
 20
28.82179703249762
 30
0.0
 41
1.0
 10
3.47855683292948
 20
28.88077674579713
 30
0.0
 41
0.9999568079355868
 10
3.189386400497944
 20
28.93556524026694
 30
0.0
 41
0.9999568079355868
 10
2.899929070843111
 20
28.98886921682592
 30
0.0
 41
1.0
  0
ARC
  5
156
330
1F
100
AcDbEntity
  8
SETUP
100
AcDbCircle
 10
2.989612860418223
 20
29.48076027985457
 30
0.0
 40
0.5
100
AcDbArc
 50
180.0
 51
259.6670747444176
  0
LINE
  5
157
330
1F
100
AcDbEntity
  8
SETUP
100
AcDbLine
 10
2.489612860418223
 20
29.48076027985457
 30
0.0
 11
2.489612860418223
 21
30.061856153213
 31
0.0
  0
SPLINE
  5
158
330
1F
100
AcDbEntity
  8
SETUP
100
AcDbSpline
210
0.0
220
0.0
230
1.0
 70
     8
 71
     3
 72
     9
 73
     5
 74
     0
 42
0.0000000001
 43
0.0000000001
 40
-2.0
 40
-2.0
 40
-2.0
 40
-2.0
 40
-0.9999999999810663
 40
0.0
 40
0.0
 40
0.0
 40
0.0
 10
2.489612860418223
 20
30.061856153213
 30
0.0
 10
4.612027604726212
 20
30.061856153213
 30
0.0
 10
10.2246883476416
 20
28.19948148790926
 30
0.0
 10
12.7192042334408
 20
26.97422939164477
 30
0.0
 10
14.4896128602171
 20
26.97422939159837
 30
0.0
  0
SPLINE
  5
159
330
1F
100
AcDbEntity
  8
SETUP
100
AcDbSpline
210
0.0
220
0.0
230
1.0
 70
     8
 71
     3
 72
     9
 73
     5
 74
     0
 42
0.0000000001
 43
0.0000000001
 40
0.0
 40
0.0
 40
0.0
 40
0.0
 40
0.9999999999810663
 40
2.0
 40
2.0
 40
2.0
 40
2.0
 10
14.4896128602171
 20
26.97422939159837
 30
0.0
 10
16.26002148699338
 20
26.97422939164477
 30
0.0
 10
18.75453737279259
 20
28.19948148790926
 30
0.0
 10
24.36719811570798
 20
30.061856153213
 30
0.0
 10
26.48961286001597
 20
30.061856153213
 30
0.0
  0
LINE
  5
15A
330
1F
100
AcDbEntity
  8
SETUP
100
AcDbLine
 10
26.48961286001597
 20
30.061856153213
 30
0.0
 11
26.48961286001597
 21
29.48076027985457
 31
0.0
  0
ARC
  5
15B
330
1F
100
AcDbEntity
  8
SETUP
100
AcDbCircle
 10
25.98961286001597
 20
29.48076027985457
 30
0.0
 40
0.5
100
AcDbArc
 50
280.3329252555823
 51
0.0
  0
SPLINE
  5
15C
330
1F
100
AcDbEntity
  8
SETUP
100
AcDbSpline
210
0.0
220
0.0
230
1.0
 70
    12
 71
     3
 72
    11
 73
     7
 74
     0
 42
0.0000000001
 43
0.0000000001
 40
-0.9759947717667035
 40
-0.9759947717667035
 40
-0.9759947717667035
 40
-0.9759947717667035
 40
-0.9187432018119346
 40
-0.9187432018119346
 40
-0.9187432018119346
 40
-0.0683991490523112
 40
-0.0683991490523112
 40
-0.0683991490523112
 40
-0.0683991490523112
 10
26.07929664959108
 20
28.98886921682592
 30
0.0
 41
1.0
 10
25.78983931993625
 20
28.93556524026694
 30
0.0
 41
0.9999568079355868
 10
25.50066888750471
 20
28.88077674579713
 30
0.0
 41
0.9999568079355868
 10
25.21231186947479
 20
28.82179703249762
 30
0.0
 41
1.0
 10
20.92896758627436
 20
27.94878999363391
 30
0.0
 41
1.0
 10
18.40420747014358
 20
26.67992991056102
 30
0.0
 41
1.0
 10
16.25236023905221
 20
24.28659900282819
 30
0.0
 41
1.0
  0
ARC
  5
15D
330
1F
100
AcDbEntity
  8
SETUP
100
AcDbCircle
 10
17.73961286001694
 20
22.94940805108138
 30
0.0
 40
2.000000000000001
100
AcDbArc
 50
138.0412447030209
 51
180.0000000000375
  0
ARC
  5
15E
330
1F
100
AcDbEntity
  8
SETUP
100
AcDbCircle
 10
14.48961286021703
 20
22.94940805108007
 30
0.0
 40
1.249999999799913
100
AcDbArc
 50
310.3508431492364
 51
0.0000000000076537
  0
ARC
  5
15F
330
1F
100
AcDbEntity
  8
SETUP
100
AcDbCircle
 10
15.25038576453848
 20
22.05394750612004
 30
0.0
 40
0.075
100
AcDbArc
 50
180.0
 51
310.3508431492469
  0
POLYLINE
  5
160
330
1F
100
AcDbEntity
  8
SETUP
100
AcDb2dPolyline
 66
     1
 10
0.0
 20
0.0
 30
0.0
  0
VERTEX
  5
161
330
160
100
AcDbEntity
  8
SETUP
100
AcDbVertex
100
AcDb2dVertex
 10
15.17538576453848
 20
22.05394750612004
 30
0.0
  0
VERTEX
  5
162
330
160
100
AcDbEntity
  8
SETUP
100
AcDbVertex
100
AcDb2dVertex
 10
15.17538576453848
 20
24.42441095172395
 30
0.0
  0
VERTEX
  5
163
330
160
100
AcDbEntity
  8
SETUP
100
AcDbVertex
100
AcDb2dVertex
 10
14.77538576453849
 20
24.42441095172395
 30
0.0
  0
VERTEX
  5
164
330
160
100
AcDbEntity
  8
SETUP
100
AcDbVertex
100
AcDb2dVertex
 10
14.77538576453849
 20
21.79346697025733
 30
0.0
  0
SEQEND
  5
165
330
160
100
AcDbEntity
  8
SETUP
  0
ARC
  5
166
330
1F
100
AcDbEntity
  8
SETUP
100
AcDbCircle
 10
14.70038576453848
 20
21.79346697025733
 30
0.0
 40
0.075
100
AcDbArc
 50
280.3337182594619
 51
0.0
  0
ARC
  5
167
330
1F
100
AcDbEntity
  8
SETUP
100
AcDbCircle
 10
14.48961286021716
 20
22.94940805108041
 30
0.0
 40
1.249999999800206
100
AcDbArc
 50
259.6662817405422
 51
280.3337182594521
  0
POLYLINE
  5
168
330
1F
100
AcDbEntity
  8
SETUP
100
AcDb2dPolyline
 66
     1
 10
0.0
 20
0.0
 30
0.0
  0
VERTEX
  5
169
330
168
100
AcDbEntity
  8
SETUP
100
AcDbVertex
100
AcDb2dVertex
 10
25.58294946576151
 20
29.42606045268099
 30
0.0
  0
VERTEX
  5
16A
330
168
100
AcDbEntity
  8
SETUP
100
AcDbVertex
100
AcDb2dVertex
 10
25.58294946576151
 20
29.82606045197656
 30
0.0
  0
VERTEX
  5
16B
330
168
100
AcDbEntity
  8
SETUP
100
AcDbVertex
100
AcDb2dVertex
 10
25.98295015337746
 20
29.82606045197656
 30
0.0
  0
VERTEX
  5
16C
330
168
100
AcDbEntity
  8
SETUP
100
AcDbVertex
100
AcDb2dVertex
 10
25.98295015337746
 20
29.42606045268099
 30
0.0
  0
VERTEX
  5
16D
330
168
100
AcDbEntity
  8
SETUP
100
AcDbVertex
100
AcDb2dVertex
 10
25.58294946576151
 20
29.42606045268099
 30
0.0
  0
SEQEND
  5
16E
330
168
100
AcDbEntity
  8
SETUP
  0
LINE
  5
16F
330
1F
100
AcDbEntity
  8
SETUP
100
AcDbLine
 10
-3.423876681984897
 20
-3.667361241695831
 30
0.0
 11
-3.467600076148223
 21
-3.269758089166052
 31
0.0
  0
SPLINE
  5
170
330
1F
100
AcDbEntity
  8
SETUP
100
AcDbSpline
210
0.0
220
0.0
230
1.0
 70
    12
 71
     2
 72
     6
 73
     3
 74
     0
 42
0.0000000001
 43
0.0000000001
 40
2.886989310351491
 40
2.886989310351491
 40
2.886989310351491
 40
3.748258145459435
 40
3.748258145459435
 40
3.748258145459435
 10
-3.467600076148223
 20
-3.269758089166052
 30
0.0
 41
1.0
 10
-3.896082512135536
 20
-3.316877198563286
 30
0.0
 41
0.9985008449683606
 10
-4.3271479461708
 20
-3.316877198563285
 30
0.0
 41
1.0
  0
SPLINE
  5
171
330
1F
100
AcDbEntity
  8
SETUP
100
AcDbSpline
210
0.0
220
0.0
230
1.0
 70
    12
 71
     2
 72
     6
 73
     3
 74
     0
 42
0.0000000001
 43
0.0000000001
 40
3.748258145459435
 40
3.748258145459435
 40
3.748258145459435
 40
4.609526980567378
 40
4.609526980567378
 40
4.609526980567378
 10
-4.3271479461708
 20
-3.316877198563285
 30
0.0
 41
1.0
 10
-4.758213380206065
 20
-3.316877198563286
 30
0.0
 41
0.9985008449683606
 10
-5.186695816193378
 20
-3.269758089166052
 30
0.0
 41
1.0
  0
LINE
  5
172
330
1F
100
AcDbEntity
  8
SETUP
100
AcDbLine
 10
-5.186695816193378
 20
-3.269758089166052
 30
0.0
 11
-5.230419210356704
 21
-3.667361241695831
 31
0.0
  0
POLYLINE
  5
173
330
1F
100
AcDbEntity
  8
SETUP
100
AcDb2dPolyline
 66
     1
 10
0.0
 20
0.0
 30
0.0
  0
VERTEX
  5
174
330
173
100
AcDbEntity
  8
SETUP
100
AcDbVertex
100
AcDb2dVertex
 10
-5.230419210356704
 20
-3.667361241695831
 30
0.0
  0
VERTEX
  5
175
330
173
100
AcDbEntity
  8
SETUP
100
AcDbVertex
100
AcDb2dVertex
 10
-5.553484374276112
 20
-3.631872046059208
 30
0.0
  0
SEQEND
  5
176
330
173
100
AcDbEntity
  8
SETUP
  0
ARC
  5
177
330
1F
100
AcDbEntity
  8
SETUP
100
AcDbCircle
 10
-5.561673972213036
 20
-3.706423575122209
 30
0.0
 40
0.075
100
AcDbArc
 50
83.73110786062327
 51
173.7245457119497
  0
POLYLINE
  5
178
330
1F
100
AcDbEntity
  8
SETUP
100
AcDb2dPolyline
 66
     1
 10
0.0
 20
0.0
 30
0.0
  0
VERTEX
  5
179
330
178
100
AcDbEntity
  8
SETUP
100
AcDbVertex
100
AcDb2dVertex
 10
-5.636224562823416
 20
-3.69822543877036
 30
0.0
  0
VERTEX
  5
17A
330
178
100
AcDbEntity
  8
SETUP
100
AcDbVertex
100
AcDb2dVertex
 10
-5.663551684175497
 20
-3.946727409101465
 30
0.0
  0
SEQEND
  5
17B
330
178
100
AcDbEntity
  8
SETUP
  0
ARC
  5
17C
330
1F
100
AcDbEntity
  8
SETUP
100
AcDbCircle
 10
-5.589001093565116
 20
-3.95492554545332
 30
0.0
 40
0.075
100
AcDbArc
 50
173.724545711945
 51
263.7311078606226
  0
POLYLINE
  5
17D
330
1F
100
AcDbEntity
  8
SETUP
100
AcDb2dPolyline
 66
     1
 10
0.0
 20
0.0
 30
0.0
  0
VERTEX
  5
17E
330
17D
100
AcDbEntity
  8
SETUP
100
AcDbVertex
100
AcDb2dVertex
 10
-5.597190691502042
 20
-4.029477074516321
 30
0.0
  0
VERTEX
  5
17F
330
17D
100
AcDbEntity
  8
SETUP
100
AcDbVertex
100
AcDb2dVertex
 10
-5.274142604520028
 20
-4.06496439422561
 30
0.0
  0
SEQEND
  5
180
330
17D
100
AcDbEntity
  8
SETUP
  0
LINE
  5
181
330
1F
100
AcDbEntity
  8
SETUP
100
AcDbLine
 10
-5.274142604520028
 20
-4.06496439422561
 30
0.0
 11
-5.329225755707272
 21
-4.565868658005123
 31
0.0000000000000053
  0
ARC
  5
182
330
1F
100
AcDbEntity
  8
SETUP
100
AcDbCircle
 10
-4.327147946170799
 20
4.546628296452142
 30
0.0000000000000053
 40
9.167429338770948
100
AcDbArc
 50
263.7245457119456
 51
270.0000000000001
  0
ARC
  5
183
330
1F
100
AcDbEntity
  8
SETUP
100
AcDbCircle
 10
-4.327147946170843
 20
4.546628296452779
 30
0.0000000000000053
 40
9.167429338771587
100
AcDbArc
 50
270.0000000000002
 51
276.2754542880542
  0
LINE
  5
184
330
1F
100
AcDbEntity
  8
SETUP
100
AcDbLine
 10
-3.325070136634329
 20
-4.565868658005124
 30
0.0000000000000053
 11
-3.380153287821572
 21
-4.06496439422561
 31
0.0
  0
POLYLINE
  5
185
330
1F
100
AcDbEntity
  8
SETUP
100
AcDb2dPolyline
 66
     1
 10
0.0
 20
0.0
 30
0.0
  0
VERTEX
  5
186
330
185
100
AcDbEntity
  8
SETUP
100
AcDbVertex
100
AcDb2dVertex
 10
-3.380153287821572
 20
-4.06496439422561
 30
0.0
  0
VERTEX
  5
187
330
185
100
AcDbEntity
  8
SETUP
100
AcDbVertex
100
AcDb2dVertex
 10
-3.057105200839559
 20
-4.029477074516321
 30
0.0
  0
SEQEND
  5
188
330
185
100
AcDbEntity
  8
SETUP
  0
ARC
  5
189
330
1F
100
AcDbEntity
  8
SETUP
100
AcDbCircle
 10
-3.065294798776484
 20
-3.95492554545332
 30
0.0
 40
0.075
100
AcDbArc
 50
276.2688921393778
 51
6.275454288055029
  0
POLYLINE
  5
18A
330
1F
100
AcDbEntity
  8
SETUP
100
AcDb2dPolyline
 66
     1
 10
0.0
 20
0.0
 30
0.0
  0
VERTEX
  5
18B
330
18A
100
AcDbEntity
  8
SETUP
100
AcDbVertex
100
AcDb2dVertex
 10
-2.990744208166105
 20
-3.946727409101465
 30
0.0
  0
VERTEX
  5
18C
330
18A
100
AcDbEntity
  8
SETUP
100
AcDbVertex
100
AcDb2dVertex
 10
-3.018071329518185
 20
-3.69822543877036
 30
0.0
  0
SEQEND
  5
18D
330
18A
100
AcDbEntity
  8
SETUP
  0
ARC
  5
18E
330
1F
100
AcDbEntity
  8
SETUP
100
AcDbCircle
 10
-3.092621920128565
 20
-3.706423575122209
 30
0.0
 40
0.075
100
AcDbArc
 50
6.275454288050271
 51
96.26889213937675
  0
POLYLINE
  5
18F
330
1F
100
AcDbEntity
  8
SETUP
100
AcDb2dPolyline
 66
     1
 10
0.0
 20
0.0
 30
0.0
  0
VERTEX
  5
190
330
18F
100
AcDbEntity
  8
SETUP
100
AcDbVertex
100
AcDb2dVertex
 10
-3.100811518065489
 20
-3.631872046059208
 30
0.0
  0
VERTEX
  5
191
330
18F
100
AcDbEntity
  8
SETUP
100
AcDbVertex
100
AcDb2dVertex
 10
-3.423876681984897
 20
-3.667361241695831
 30
0.0
  0
SEQEND
  5
192
330
18F
100
AcDbEntity
  8
SETUP
  0
LINE
  5
193
330
1F
100
AcDbEntity
  8
SETUP
100
AcDbLine
 10
-3.423876681984897
 20
-5.403629458280955
 30
0.0
 11
-3.467600076148223
 21
-5.006026305751176
 31
0.0
  0
SPLINE
  5
194
330
1F
100
AcDbEntity
  8
SETUP
100
AcDbSpline
210
0.0
220
0.0
230
1.0
 70
    12
 71
     2
 72
     6
 73
     3
 74
     0
 42
0.0000000001
 43
0.0000000001
 40
2.886989310351491
 40
2.886989310351491
 40
2.886989310351491
 40
3.748258145459435
 40
3.748258145459435
 40
3.748258145459435
 10
-3.467600076148223
 20
-5.006026305751176
 30
0.0
 41
1.0
 10
-3.896082512135536
 20
-5.05314541514841
 30
0.0
 41
0.9985008449683606
 10
-4.3271479461708
 20
-5.053145415148409
 30
0.0
 41
1.0
  0
SPLINE
  5
195
330
1F
100
AcDbEntity
  8
SETUP
100
AcDbSpline
210
0.0
220
0.0
230
1.0
 70
    12
 71
     2
 72
     6
 73
     3
 74
     0
 42
0.0000000001
 43
0.0000000001
 40
3.748258145459435
 40
3.748258145459435
 40
3.748258145459435
 40
4.609526980567378
 40
4.609526980567378
 40
4.609526980567378
 10
-4.3271479461708
 20
-5.053145415148409
 30
0.0
 41
1.0
 10
-4.758213380206065
 20
-5.05314541514841
 30
0.0
 41
0.9985008449683606
 10
-5.186695816193378
 20
-5.006026305751176
 30
0.0
 41
1.0
  0
LINE
  5
196
330
1F
100
AcDbEntity
  8
SETUP
100
AcDbLine
 10
-5.186695816193378
 20
-5.006026305751176
 30
0.0
 11
-5.230419210356704
 21
-5.403629458280955
 31
0.0
  0
POLYLINE
  5
197
330
1F
100
AcDbEntity
  8
SETUP
100
AcDb2dPolyline
 66
     1
 10
0.0
 20
0.0
 30
0.0
  0
VERTEX
  5
198
330
197
100
AcDbEntity
  8
SETUP
100
AcDbVertex
100
AcDb2dVertex
 10
-5.230419210356704
 20
-5.403629458280955
 30
0.0
  0
VERTEX
  5
199
330
197
100
AcDbEntity
  8
SETUP
100
AcDbVertex
100
AcDb2dVertex
 10
-5.553484374276112
 20
-5.368140262644332
 30
0.0
  0
SEQEND
  5
19A
330
197
100
AcDbEntity
  8
SETUP
  0
ARC
  5
19B
330
1F
100
AcDbEntity
  8
SETUP
100
AcDbCircle
 10
-5.561673972213036
 20
-5.442691791707333
 30
0.0
 40
0.075
100
AcDbArc
 50
83.73110786062324
 51
173.7245457119497
  0
POLYLINE
  5
19C
330
1F
100
AcDbEntity
  8
SETUP
100
AcDb2dPolyline
 66
     1
 10
0.0
 20
0.0
 30
0.0
  0
VERTEX
  5
19D
330
19C
100
AcDbEntity
  8
SETUP
100
AcDbVertex
100
AcDb2dVertex
 10
-5.636224562823416
 20
-5.434493655355483
 30
0.0
  0
VERTEX
  5
19E
330
19C
100
AcDbEntity
  8
SETUP
100
AcDbVertex
100
AcDb2dVertex
 10
-5.663551684175497
 20
-5.682995625686589
 30
0.0
  0
SEQEND
  5
19F
330
19C
100
AcDbEntity
  8
SETUP
  0
ARC
  5
1A0
330
1F
100
AcDbEntity
  8
SETUP
100
AcDbCircle
 10
-5.589001093565116
 20
-5.691193762038444
 30
0.0
 40
0.075
100
AcDbArc
 50
173.724545711945
 51
263.7311078606226
  0
POLYLINE
  5
1A1
330
1F
100
AcDbEntity
  8
SETUP
100
AcDb2dPolyline
 66
     1
 10
0.0
 20
0.0
 30
0.0
  0
VERTEX
  5
1A2
330
1A1
100
AcDbEntity
  8
SETUP
100
AcDbVertex
100
AcDb2dVertex
 10
-5.597190691502042
 20
-5.765745291101445
 30
0.0
  0
VERTEX
  5
1A3
330
1A1
100
AcDbEntity
  8
SETUP
100
AcDbVertex
100
AcDb2dVertex
 10
-5.274142604520028
 20
-5.801232610810734
 30
0.0
  0
SEQEND
  5
1A4
330
1A1
100
AcDbEntity
  8
SETUP
  0
LINE
  5
1A5
330
1F
100
AcDbEntity
  8
SETUP
100
AcDbLine
 10
-5.274142604520028
 20
-5.801232610810734
 30
0.0
 11
-5.329225755707272
 21
-6.302136874590247
 31
0.0000000000000053
  0
ARC
  5
1A6
330
1F
100
AcDbEntity
  8
SETUP
100
AcDbCircle
 10
-4.327147946170799
 20
2.810360079867018
 30
0.0000000000000053
 40
9.167429338770948
100
AcDbArc
 50
263.7245457119456
 51
270.0000000000001
  0
ARC
  5
1A7
330
1F
100
AcDbEntity
  8
SETUP
100
AcDbCircle
 10
-4.327147946170843
 20
2.810360079867655
 30
0.0000000000000053
 40
9.167429338771587
100
AcDbArc
 50
270.0000000000002
 51
276.2754542880542
  0
LINE
  5
1A8
330
1F
100
AcDbEntity
  8
SETUP
100
AcDbLine
 10
-3.325070136634329
 20
-6.302136874590248
 30
0.0000000000000053
 11
-3.380153287821572
 21
-5.801232610810734
 31
0.0
  0
POLYLINE
  5
1A9
330
1F
100
AcDbEntity
  8
SETUP
100
AcDb2dPolyline
 66
     1
 10
0.0
 20
0.0
 30
0.0
  0
VERTEX
  5
1AA
330
1A9
100
AcDbEntity
  8
SETUP
100
AcDbVertex
100
AcDb2dVertex
 10
-3.380153287821572
 20
-5.801232610810734
 30
0.0
  0
VERTEX
  5
1AB
330
1A9
100
AcDbEntity
  8
SETUP
100
AcDbVertex
100
AcDb2dVertex
 10
-3.057105200839559
 20
-5.765745291101445
 30
0.0
  0
SEQEND
  5
1AC
330
1A9
100
AcDbEntity
  8
SETUP
  0
ARC
  5
1AD
330
1F
100
AcDbEntity
  8
SETUP
100
AcDbCircle
 10
-3.065294798776484
 20
-5.691193762038444
 30
0.0
 40
0.075
100
AcDbArc
 50
276.2688921393777
 51
6.275454288055029
  0
POLYLINE
  5
1AE
330
1F
100
AcDbEntity
  8
SETUP
100
AcDb2dPolyline
 66
     1
 10
0.0
 20
0.0
 30
0.0
  0
VERTEX
  5
1AF
330
1AE
100
AcDbEntity
  8
SETUP
100
AcDbVertex
100
AcDb2dVertex
 10
-2.990744208166105
 20
-5.682995625686589
 30
0.0
  0
VERTEX
  5
1B0
330
1AE
100
AcDbEntity
  8
SETUP
100
AcDbVertex
100
AcDb2dVertex
 10
-3.018071329518185
 20
-5.434493655355483
 30
0.0
  0
SEQEND
  5
1B1
330
1AE
100
AcDbEntity
  8
SETUP
  0
ARC
  5
1B2
330
1F
100
AcDbEntity
  8
SETUP
100
AcDbCircle
 10
-3.092621920128565
 20
-5.442691791707333
 30
0.0
 40
0.075
100
AcDbArc
 50
6.275454288050271
 51
96.26889213937677
  0
POLYLINE
  5
1B3
330
1F
100
AcDbEntity
  8
SETUP
100
AcDb2dPolyline
 66
     1
 10
0.0
 20
0.0
 30
0.0
  0
VERTEX
  5
1B4
330
1B3
100
AcDbEntity
  8
SETUP
100
AcDbVertex
100
AcDb2dVertex
 10
-3.100811518065489
 20
-5.368140262644332
 30
0.0
  0
VERTEX
  5
1B5
330
1B3
100
AcDbEntity
  8
SETUP
100
AcDbVertex
100
AcDb2dVertex
 10
-3.423876681984897
 20
-5.403629458280955
 30
0.0
  0
SEQEND
  5
1B6
330
1B3
100
AcDbEntity
  8
SETUP
  0
LINE
  5
1B7
330
1F
100
AcDbEntity
  8
SETUP
100
AcDbLine
 10
-3.423876681984897
 20
-7.232171195547958
 30
0.0
 11
-3.467600076148223
 21
-6.834568043018179
 31
0.0
  0
SPLINE
  5
1B8
330
1F
100
AcDbEntity
  8
SETUP
100
AcDbSpline
210
0.0
220
0.0
230
1.0
 70
    12
 71
     2
 72
     6
 73
     3
 74
     0
 42
0.0000000001
 43
0.0000000001
 40
2.886989310351491
 40
2.886989310351491
 40
2.886989310351491
 40
3.748258145459435
 40
3.748258145459435
 40
3.748258145459435
 10
-3.467600076148223
 20
-6.834568043018179
 30
0.0
 41
1.0
 10
-3.896082512135536
 20
-6.881687152415413
 30
0.0
 41
0.9985008449683606
 10
-4.3271479461708
 20
-6.881687152415412
 30
0.0
 41
1.0
  0
SPLINE
  5
1B9
330
1F
100
AcDbEntity
  8
SETUP
100
AcDbSpline
210
0.0
220
0.0
230
1.0
 70
    12
 71
     2
 72
     6
 73
     3
 74
     0
 42
0.0000000001
 43
0.0000000001
 40
3.748258145459435
 40
3.748258145459435
 40
3.748258145459435
 40
4.609526980567378
 40
4.609526980567378
 40
4.609526980567378
 10
-4.3271479461708
 20
-6.881687152415412
 30
0.0
 41
1.0
 10
-4.758213380206065
 20
-6.881687152415413
 30
0.0
 41
0.9985008449683606
 10
-5.186695816193378
 20
-6.834568043018179
 30
0.0
 41
1.0
  0
LINE
  5
1BA
330
1F
100
AcDbEntity
  8
SETUP
100
AcDbLine
 10
-5.186695816193378
 20
-6.834568043018179
 30
0.0
 11
-5.230419210356704
 21
-7.232171195547958
 31
0.0
  0
POLYLINE
  5
1BB
330
1F
100
AcDbEntity
  8
SETUP
100
AcDb2dPolyline
 66
     1
 10
0.0
 20
0.0
 30
0.0
  0
VERTEX
  5
1BC
330
1BB
100
AcDbEntity
  8
SETUP
100
AcDbVertex
100
AcDb2dVertex
 10
-5.230419210356704
 20
-7.232171195547958
 30
0.0
  0
VERTEX
  5
1BD
330
1BB
100
AcDbEntity
  8
SETUP
100
AcDbVertex
100
AcDb2dVertex
 10
-5.553484374276112
 20
-7.196681999911335
 30
0.0
  0
SEQEND
  5
1BE
330
1BB
100
AcDbEntity
  8
SETUP
  0
ARC
  5
1BF
330
1F
100
AcDbEntity
  8
SETUP
100
AcDbCircle
 10
-5.561673972213036
 20
-7.271233528974337
 30
0.0
 40
0.075
100
AcDbArc
 50
83.73110786062324
 51
173.7245457119497
  0
POLYLINE
  5
1C0
330
1F
100
AcDbEntity
  8
SETUP
100
AcDb2dPolyline
 66
     1
 10
0.0
 20
0.0
 30
0.0
  0
VERTEX
  5
1C1
330
1C0
100
AcDbEntity
  8
SETUP
100
AcDbVertex
100
AcDb2dVertex
 10
-5.636224562823416
 20
-7.263035392622488
 30
0.0
  0
VERTEX
  5
1C2
330
1C0
100
AcDbEntity
  8
SETUP
100
AcDbVertex
100
AcDb2dVertex
 10
-5.663551684175497
 20
-7.511537362953592
 30
0.0
  0
SEQEND
  5
1C3
330
1C0
100
AcDbEntity
  8
SETUP
  0
ARC
  5
1C4
330
1F
100
AcDbEntity
  8
SETUP
100
AcDbCircle
 10
-5.589001093565116
 20
-7.519735499305447
 30
0.0
 40
0.075
100
AcDbArc
 50
173.724545711945
 51
263.7311078606226
  0
POLYLINE
  5
1C5
330
1F
100
AcDbEntity
  8
SETUP
100
AcDb2dPolyline
 66
     1
 10
0.0
 20
0.0
 30
0.0
  0
VERTEX
  5
1C6
330
1C5
100
AcDbEntity
  8
SETUP
100
AcDbVertex
100
AcDb2dVertex
 10
-5.597190691502042
 20
-7.594287028368448
 30
0.0
  0
VERTEX
  5
1C7
330
1C5
100
AcDbEntity
  8
SETUP
100
AcDbVertex
100
AcDb2dVertex
 10
-5.274142604520028
 20
-7.629774348077738
 30
0.0
  0
SEQEND
  5
1C8
330
1C5
100
AcDbEntity
  8
SETUP
  0
LINE
  5
1C9
330
1F
100
AcDbEntity
  8
SETUP
100
AcDbLine
 10
-5.274142604520028
 20
-7.629774348077738
 30
0.0
 11
-5.329225755707272
 21
-8.13067861185725
 31
0.0000000000000053
  0
ARC
  5
1CA
330
1F
100
AcDbEntity
  8
SETUP
100
AcDbCircle
 10
-4.327147946170799
 20
0.9818183426000147
 30
0.0000000000000053
 40
9.167429338770948
100
AcDbArc
 50
263.7245457119456
 51
270.0000000000001
  0
ARC
  5
1CB
330
1F
100
AcDbEntity
  8
SETUP
100
AcDbCircle
 10
-4.327147946170843
 20
0.9818183426006515
 30
0.0000000000000053
 40
9.167429338771587
100
AcDbArc
 50
270.0000000000002
 51
276.2754542880542
  0
LINE
  5
1CC
330
1F
100
AcDbEntity
  8
SETUP
100
AcDbLine
 10
-3.325070136634329
 20
-8.130678611857252
 30
0.0000000000000053
 11
-3.380153287821572
 21
-7.629774348077738
 31
0.0
  0
POLYLINE
  5
1CD
330
1F
100
AcDbEntity
  8
SETUP
100
AcDb2dPolyline
 66
     1
 10
0.0
 20
0.0
 30
0.0
  0
VERTEX
  5
1CE
330
1CD
100
AcDbEntity
  8
SETUP
100
AcDbVertex
100
AcDb2dVertex
 10
-3.380153287821572
 20
-7.629774348077738
 30
0.0
  0
VERTEX
  5
1CF
330
1CD
100
AcDbEntity
  8
SETUP
100
AcDbVertex
100
AcDb2dVertex
 10
-3.057105200839559
 20
-7.594287028368448
 30
0.0
  0
SEQEND
  5
1D0
330
1CD
100
AcDbEntity
  8
SETUP
  0
ARC
  5
1D1
330
1F
100
AcDbEntity
  8
SETUP
100
AcDbCircle
 10
-3.065294798776484
 20
-7.519735499305447
 30
0.0
 40
0.075
100
AcDbArc
 50
276.2688921393777
 51
6.275454288055067
  0
POLYLINE
  5
1D2
330
1F
100
AcDbEntity
  8
SETUP
100
AcDb2dPolyline
 66
     1
 10
0.0
 20
0.0
 30
0.0
  0
VERTEX
  5
1D3
330
1D2
100
AcDbEntity
  8
SETUP
100
AcDbVertex
100
AcDb2dVertex
 10
-2.990744208166105
 20
-7.511537362953592
 30
0.0
  0
VERTEX
  5
1D4
330
1D2
100
AcDbEntity
  8
SETUP
100
AcDbVertex
100
AcDb2dVertex
 10
-3.018071329518185
 20
-7.263035392622488
 30
0.0
  0
SEQEND
  5
1D5
330
1D2
100
AcDbEntity
  8
SETUP
  0
ARC
  5
1D6
330
1F
100
AcDbEntity
  8
SETUP
100
AcDbCircle
 10
-3.092621920128565
 20
-7.271233528974337
 30
0.0
 40
0.075
100
AcDbArc
 50
6.275454288050271
 51
96.26889213937677
  0
POLYLINE
  5
1D7
330
1F
100
AcDbEntity
  8
SETUP
100
AcDb2dPolyline
 66
     1
 10
0.0
 20
0.0
 30
0.0
  0
VERTEX
  5
1D8
330
1D7
100
AcDbEntity
  8
SETUP
100
AcDbVertex
100
AcDb2dVertex
 10
-3.100811518065489
 20
-7.196681999911335
 30
0.0
  0
VERTEX
  5
1D9
330
1D7
100
AcDbEntity
  8
SETUP
100
AcDbVertex
100
AcDb2dVertex
 10
-3.423876681984897
 20
-7.232171195547958
 30
0.0
  0
SEQEND
  5
1DA
330
1D7
100
AcDbEntity
  8
SETUP
  0
LINE
  5
1DB
330
1F
100
AcDbEntity
  8
SETUP
100
AcDbLine
 10
-3.423876681984897
 20
-9.132892211917605
 30
0.0
 11
-3.467600076148223
 21
-8.735289059387826
 31
0.0
  0
SPLINE
  5
1DC
330
1F
100
AcDbEntity
  8
SETUP
100
AcDbSpline
210
0.0
220
0.0
230
1.0
 70
    12
 71
     2
 72
     6
 73
     3
 74
     0
 42
0.0000000001
 43
0.0000000001
 40
2.886989310351491
 40
2.886989310351491
 40
2.886989310351491
 40
3.748258145459435
 40
3.748258145459435
 40
3.748258145459435
 10
-3.467600076148223
 20
-8.735289059387826
 30
0.0
 41
1.0
 10
-3.896082512135536
 20
-8.78240816878506
 30
0.0
 41
0.9985008449683606
 10
-4.3271479461708
 20
-8.782408168785059
 30
0.0
 41
1.0
  0
SPLINE
  5
1DD
330
1F
100
AcDbEntity
  8
SETUP
100
AcDbSpline
210
0.0
220
0.0
230
1.0
 70
    12
 71
     2
 72
     6
 73
     3
 74
     0
 42
0.0000000001
 43
0.0000000001
 40
3.748258145459435
 40
3.748258145459435
 40
3.748258145459435
 40
4.609526980567378
 40
4.609526980567378
 40
4.609526980567378
 10
-4.3271479461708
 20
-8.782408168785059
 30
0.0
 41
1.0
 10
-4.758213380206065
 20
-8.78240816878506
 30
0.0
 41
0.9985008449683606
 10
-5.186695816193378
 20
-8.735289059387826
 30
0.0
 41
1.0
  0
LINE
  5
1DE
330
1F
100
AcDbEntity
  8
SETUP
100
AcDbLine
 10
-5.186695816193378
 20
-8.735289059387826
 30
0.0
 11
-5.230419210356704
 21
-9.132892211917605
 31
0.0
  0
POLYLINE
  5
1DF
330
1F
100
AcDbEntity
  8
SETUP
100
AcDb2dPolyline
 66
     1
 10
0.0
 20
0.0
 30
0.0
  0
VERTEX
  5
1E0
330
1DF
100
AcDbEntity
  8
SETUP
100
AcDbVertex
100
AcDb2dVertex
 10
-5.230419210356704
 20
-9.132892211917605
 30
0.0
  0
VERTEX
  5
1E1
330
1DF
100
AcDbEntity
  8
SETUP
100
AcDbVertex
100
AcDb2dVertex
 10
-5.553484374276112
 20
-9.097403016280982
 30
0.0
  0
SEQEND
  5
1E2
330
1DF
100
AcDbEntity
  8
SETUP
  0
ARC
  5
1E3
330
1F
100
AcDbEntity
  8
SETUP
100
AcDbCircle
 10
-5.561673972213036
 20
-9.171954545343983
 30
0.0
 40
0.075
100
AcDbArc
 50
83.73110786062324
 51
173.7245457119497
  0
POLYLINE
  5
1E4
330
1F
100
AcDbEntity
  8
SETUP
100
AcDb2dPolyline
 66
     1
 10
0.0
 20
0.0
 30
0.0
  0
VERTEX
  5
1E5
330
1E4
100
AcDbEntity
  8
SETUP
100
AcDbVertex
100
AcDb2dVertex
 10
-5.636224562823416
 20
-9.163756408992134
 30
0.0
  0
VERTEX
  5
1E6
330
1E4
100
AcDbEntity
  8
SETUP
100
AcDbVertex
100
AcDb2dVertex
 10
-5.663551684175497
 20
-9.412258379323239
 30
0.0
  0
SEQEND
  5
1E7
330
1E4
100
AcDbEntity
  8
SETUP
  0
ARC
  5
1E8
330
1F
100
AcDbEntity
  8
SETUP
100
AcDbCircle
 10
-5.589001093565116
 20
-9.420456515675095
 30
0.0
 40
0.075
100
AcDbArc
 50
173.7245457119457
 51
263.7311078606226
  0
POLYLINE
  5
1E9
330
1F
100
AcDbEntity
  8
SETUP
100
AcDb2dPolyline
 66
     1
 10
0.0
 20
0.0
 30
0.0
  0
VERTEX
  5
1EA
330
1E9
100
AcDbEntity
  8
SETUP
100
AcDbVertex
100
AcDb2dVertex
 10
-5.597190691502042
 20
-9.495008044738096
 30
0.0
  0
VERTEX
  5
1EB
330
1E9
100
AcDbEntity
  8
SETUP
100
AcDbVertex
100
AcDb2dVertex
 10
-5.274142604520028
 20
-9.530495364447384
 30
0.0
  0
SEQEND
  5
1EC
330
1E9
100
AcDbEntity
  8
SETUP
  0
LINE
  5
1ED
330
1F
100
AcDbEntity
  8
SETUP
100
AcDbLine
 10
-5.274142604520028
 20
-9.530495364447384
 30
0.0
 11
-5.329225755707272
 21
-10.0313996282269
 31
0.0000000000000053
  0
ARC
  5
1EE
330
1F
100
AcDbEntity
  8
SETUP
100
AcDbCircle
 10
-4.327147946170799
 20
-0.9189026737696322
 30
0.0000000000000053
 40
9.167429338770948
100
AcDbArc
 50
263.7245457119456
 51
270.0000000000001
  0
ARC
  5
1EF
330
1F
100
AcDbEntity
  8
SETUP
100
AcDbCircle
 10
-4.327147946170843
 20
-0.9189026737689954
 30
0.0000000000000053
 40
9.167429338771587
100
AcDbArc
 50
270.0000000000002
 51
276.2754542880542
  0
LINE
  5
1F0
330
1F
100
AcDbEntity
  8
SETUP
100
AcDbLine
 10
-3.325070136634329
 20
-10.0313996282269
 30
0.0000000000000053
 11
-3.380153287821572
 21
-9.530495364447384
 31
0.0
  0
POLYLINE
  5
1F1
330
1F
100
AcDbEntity
  8
SETUP
100
AcDb2dPolyline
 66
     1
 10
0.0
 20
0.0
 30
0.0
  0
VERTEX
  5
1F2
330
1F1
100
AcDbEntity
  8
SETUP
100
AcDbVertex
100
AcDb2dVertex
 10
-3.380153287821572
 20
-9.530495364447384
 30
0.0
  0
VERTEX
  5
1F3
330
1F1
100
AcDbEntity
  8
SETUP
100
AcDbVertex
100
AcDb2dVertex
 10
-3.057105200839559
 20
-9.495008044738096
 30
0.0
  0
SEQEND
  5
1F4
330
1F1
100
AcDbEntity
  8
SETUP
  0
ARC
  5
1F5
330
1F
100
AcDbEntity
  8
SETUP
100
AcDbCircle
 10
-3.065294798776484
 20
-9.420456515675095
 30
0.0
 40
0.075
100
AcDbArc
 50
276.2688921393778
 51
6.275454288054392
  0
POLYLINE
  5
1F6
330
1F
100
AcDbEntity
  8
SETUP
100
AcDb2dPolyline
 66
     1
 10
0.0
 20
0.0
 30
0.0
  0
VERTEX
  5
1F7
330
1F6
100
AcDbEntity
  8
SETUP
100
AcDbVertex
100
AcDb2dVertex
 10
-2.990744208166105
 20
-9.412258379323239
 30
0.0
  0
VERTEX
  5
1F8
330
1F6
100
AcDbEntity
  8
SETUP
100
AcDbVertex
100
AcDb2dVertex
 10
-3.018071329518185
 20
-9.163756408992134
 30
0.0
  0
SEQEND
  5
1F9
330
1F6
100
AcDbEntity
  8
SETUP
  0
ARC
  5
1FA
330
1F
100
AcDbEntity
  8
SETUP
100
AcDbCircle
 10
-3.092621920128565
 20
-9.171954545343983
 30
0.0
 40
0.075
100
AcDbArc
 50
6.275454288050271
 51
96.26889213937677
  0
POLYLINE
  5
1FB
330
1F
100
AcDbEntity
  8
SETUP
100
AcDb2dPolyline
 66
     1
 10
0.0
 20
0.0
 30
0.0
  0
VERTEX
  5
1FC
330
1FB
100
AcDbEntity
  8
SETUP
100
AcDbVertex
100
AcDb2dVertex
 10
-3.100811518065489
 20
-9.097403016280982
 30
0.0
  0
VERTEX
  5
1FD
330
1FB
100
AcDbEntity
  8
SETUP
100
AcDbVertex
100
AcDb2dVertex
 10
-3.423876681984897
 20
-9.132892211917605
 30
0.0
  0
SEQEND
  5
1FE
330
1FB
100
AcDbEntity
  8
SETUP
  0
ARC
  5
1FF
330
1F
100
AcDbEntity
  8
SETUP
100
AcDbCircle
 10
23.54483890661032
 20
-11.67656627826852
 30
0.0
 40
0.5
100
AcDbArc
 50
190.3329252555823
 51
270.0
  0
SPLINE
  5
200
330
1F
100
AcDbEntity
  8
SETUP
100
AcDbSpline
210
0.0
220
0.0
230
1.0
 70
    12
 71
     3
 72
    11
 73
     7
 74
     0
 42
0.0000000001
 43
0.0000000001
 40
-0.9759947717667035
 40
-0.9759947717667035
 40
-0.9759947717667035
 40
-0.9759947717667035
 40
-0.9187432018119346
 40
-0.9187432018119346
 40
-0.9187432018119346
 40
-0.0683991490523112
 40
-0.0683991490523112
 40
-0.0683991490523112
 40
-0.0683991490523112
 10
23.05294784358168
 20
-11.76625006784363
 30
0.0
 41
1.0
 10
22.9996438670227
 20
-11.4767927381888
 30
0.0
 41
0.9999568079355868
 10
22.94485537255289
 20
-11.18762230575726
 30
0.0
 41
0.9999568079355868
 10
22.88587565925337
 20
-10.89926528772734
 30
0.0
 41
1.0
 10
22.01286862038966
 20
-6.615921004526909
 30
0.0
 41
1.0
 10
20.74400853731677
 20
-4.09116088839613
 30
0.0
 41
1.0
 10
18.35067762958394
 20
-1.939313657304776
 30
0.0
 41
1.0
  0
ARC
  5
201
330
1F
100
AcDbEntity
  8
SETUP
100
AcDbCircle
 10
17.01348667783713
 20
-3.426566278269504
 30
0.0
 40
2.0
100
AcDbArc
 50
48.04124470302065
 51
90.00000000003735
  0
LINE
  5
202
330
1F
100
AcDbEntity
  8
SETUP
100
AcDbLine
 10
17.01348667783583
 20
-1.426566278269505
 30
0.0
 11
1.537251730097861
 21
-1.426566278670763
 31
0.0
  0
ARC
  5
203
330
1F
100
AcDbEntity
  8
SETUP
100
AcDbCircle
 10
1.537251730097857
 20
-0.1765662784696489
 30
0.0
 40
1.250000000201114
100
AcDbArc
 50
90.0000000000002
 51
270.0000000000002
  0
LINE
  5
204
330
1F
100
AcDbEntity
  8
SETUP
100
AcDbLine
 10
1.537251730097853
 20
1.073433721731465
 30
0.0
 11
17.01348667783584
 21
1.073433721330201
 31
0.0
  0
ARC
  5
205
330
1F
100
AcDbEntity
  8
SETUP
100
AcDbCircle
 10
17.01348667783713
 20
3.073433721330201
 30
0.0
 40
2.0
100
AcDbArc
 50
269.9999999999631
 51
311.9587552969796
  0
SPLINE
  5
206
330
1F
100
AcDbEntity
  8
SETUP
100
AcDbSpline
210
0.0
220
0.0
230
1.0
 70
    12
 71
     3
 72
    11
 73
     7
 74
     0
 42
0.0000000001
 43
0.0000000001
 40
0.0683991490523112
 40
0.0683991490523112
 40
0.0683991490523112
 40
0.0683991490523112
 40
0.9187432018119346
 40
0.9187432018119346
 40
0.9187432018119346
 40
0.9759947717667035
 40
0.9759947717667035
 40
0.9759947717667035
 40
0.9759947717667035
 10
18.35067762958395
 20
1.586181100365479
 30
0.0
 41
1.0
 10
20.74400853731677
 20
3.738028331456839
 30
0.0
 41
1.0
 10
22.01286862038966
 20
6.262788447587617
 30
0.0
 41
1.0
 10
22.88587565925337
 20
10.54613273078805
 30
0.0
 41
1.0
 10
22.94485537255289
 20
10.83448974881797
 30
0.0
 41
0.9999568079355868
 10
22.9996438670227
 20
11.12366018124951
 30
0.0
 41
0.9999568079355868
 10
23.05294784358168
 20
11.41311751090434
 30
0.0
 41
1.0
  0
ARC
  5
207
330
1F
100
AcDbEntity
  8
SETUP
100
AcDbCircle
 10
23.54483890661032
 20
11.32343372132923
 30
0.0
 40
0.5
100
AcDbArc
 50
90.0
 51
169.6670747444177
  0
LINE
  5
208
330
1F
100
AcDbEntity
  8
SETUP
100
AcDbLine
 10
23.54483890661032
 20
11.82343372132923
 30
0.0
 11
24.12593477996876
 21
11.82343372132923
 31
0.0
  0
SPLINE
  5
209
330
1F
100
AcDbEntity
  8
SETUP
100
AcDbSpline
210
0.0
220
0.0
230
1.0
 70
    12
 71
     3
 72
    54
 73
    50
 74
     0
 42
0.0000000001
 43
0.0000000001
 40
77.1798675356659
 40
77.1798675356659
 40
77.1798675356659
 40
77.1798675356659
 40
78.17986753568483
 40
78.98870257789184
 40
78.98870257789184
 40
78.98870257789184
 40
79.03271849197155
 40
79.03271849197155
 40
79.03271849197155
 40
79.14275507534887
 40
79.14275507534887
 40
79.14275507534887
 40
81.65644841703114
 40
81.65644841703114
 40
81.65644841703114
 40
82.04849023042709
 40
82.04849023042709
 40
82.04849023042709
 40
83.8703713613557
 40
83.8703713613557
 40
83.8703713613557
 40
83.9303492864465
 40
83.9303492864465
 40
83.9303492864465
 40
83.99032721153729
 40
83.99032721153729
 40
83.99032721153729
 40
84.0787353849582
 40
84.0787353849582
 40
84.0787353849582
 40
84.13883271689372
 40
84.13883271689372
 40
84.13883271689372
 40
84.19893004882925
 40
84.19893004882925
 40
84.19893004882925
 40
86.09083535763004
 40
86.09083535763004
 40
86.09083535763004
 40
86.48287717102598
 40
86.48287717102598
 40
86.48287717102598
 40
88.9990053208644
 40
88.9990053208644
 40
88.9990053208644
 40
89.10880187143502
 40
89.10880187143502
 40
89.10880187143502
 40
89.15288404638278
 40
89.15288404638278
 40
89.15288404638278
 40
89.15288404638278
 10
24.12593477996876
 20
11.82343372132923
 30
0.0
 41
1.0
 10
24.12593477996876
 20
9.701018977021242
 30
0.0
 41
1.0
 10
22.44157050179116
 20
4.624830261065629
 30
0.0
 41
1.0
 10
21.27835404197962
 20
2.099193775720721
 30
0.0
 41
1.0
 10
21.10230446895088
 20
0.7905003650384295
 30
0.0
 41
1.0
 10
21.09272368350026
 20
0.7192800231047596
 30
0.0
 41
0.9999246083501173
 10
21.08421504207515
 20
0.6479236528488508
 30
0.0
 41
0.9999246083501173
 10
21.07678046911712
 20
0.5764473932941527
 30
0.0
 41
1.0
 10
21.07260030067692
 20
0.5362590992142415
 30
0.0
 41
0.8285227323630414
 10
21.04258802861675
 20
0.5092066258517535
 30
0.0
 41
0.8285227323630414
 10
21.00218292016197
 20
0.5092066258517534
 30
0.0
 41
1.0
 10
20.16428513960121
 20
0.5092066258517534
 30
0.0
 41
1.0
 10
19.32638735904046
 20
0.5092066258517498
 30
0.0
 41
1.0
 10
18.4884895784797
 20
0.5092066258517498
 30
0.0
 41
1.0
 10
18.4884895784797
 20
0.3785260213864348
 30
0.0
 41
1.0
 10
18.4884895784797
 20
0.2478454169211162
 30
0.0
 41
1.0
 10
18.4884895784797
 20
0.1171648124558011
 30
0.0
 41
1.0
 10
19.31442178476951
 20
0.1171648124557905
 30
0.0
 41
1.0
 10
20.14035399105932
 20
0.1171648124557834
 30
0.0
 41
1.0
 10
20.96628619734914
 20
0.1171648124557692
 30
0.0
 41
1.0
 10
20.98683072860165
 20
0.1171648124557721
 30
0.0
 41
0.9474121954614908
 10
21.0057546721634
 20
0.1091671800275326
 30
0.0
 41
0.9474121954614908
 10
21.02007252209902
 20
0.0944336489637827
 30
0.0
 41
1.0
 10
21.03439037203464
 20
0.0797001179000267
 30
0.0
 41
0.9474121954614908
 10
21.04184329546264
 20
0.0605551003559858
 30
0.0
 41
0.9474121954614908
 10
21.04125549374163
 20
0.0400189796531301
 30
0.0
 41
1.0
 10
21.03712534669343
 20
-0.1042766140311411
 30
0.0
 41
0.9996958668257466
 10
21.03735517243701
 20
-0.2486311208934598
 30
0.0
 41
0.9996958668257466
 10
21.04194476127946
 20
-0.3929128319506567
 30
0.0
 41
1.0
 10
21.04259932367308
 20
-0.4134901397215572
 30
0.0
 41
0.9472054096734072
 10
21.03517657245743
 20
-0.4326931814445708
 30
0.0
 41
0.9472054096734072
 10
21.02085215096107
 20
-0.44748050695733
 30
0.0
 41
1.0
 10
21.00652772946472
 20
-0.4622678324700893
 30
0.0
 41
0.9472054096734072
 10
20.98757039358137
 20
-0.4702973693951789
 30
0.0
 41
0.9472054096734072
 10
20.96698267765596
 20
-0.4702973693951762
 30
0.0
 41
1.0
 10
20.14081831126387
 20
-0.4702973693951549
 30
0.0
 41
1.0
 10
19.31465394487179
 20
-0.47029736939513
 30
0.0
 41
1.0
 10
18.4884895784797
 20
-0.4702973693951051
 30
0.0
 41
1.0
 10
18.4884895784797
 20
-0.6009779738604166
 30
0.0
 41
1.0
 10
18.4884895784797
 20
-0.7316585783257281
 30
0.0
 41
1.0
 10
18.4884895784797
 20
-0.8623391827910396
 30
0.0
 41
1.0
 10
19.32719896175917
 20
-0.8623391827910414
 30
0.0
 41
1.0
 10
20.16590834503864
 20
-0.8623391827910414
 30
0.0
 41
1.0
 10
21.00461772831812
 20
-0.8623391827910396
 30
0.0
 41
1.0
 10
21.04491634364587
 20
-0.8623391827910376
 30
0.0
 41
0.8292363620836167
 10
21.07489265173909
 20
-0.8892724215572031
 30
0.0
 41
0.8292363620836167
 10
21.07919006233387
 20
-0.9293412455917895
 30
0.0
 41
1.0
 10
21.08686488919064
 20
-1.000900916243999
 30
0.0
 41
0.9999243811967431
 10
21.09211721118415
 20
-1.072397402559274
 30
0.0
 41
0.9999243811967431
 10
21.1023044689509
 20
-1.143632921977792
 30
0.0
 41
1.0
  0
SPLINE
  5
20A
330
1F
100
AcDbEntity
  8
SETUP
100
AcDbSpline
210
0.0
220
0.0
230
1.0
 70
     8
 71
     3
 72
     9
 73
     5
 74
     0
 42
0.0000000001
 43
0.0000000001
 40
0.1911649577740766
 40
0.1911649577740766
 40
0.1911649577740766
 40
0.1911649577740766
 40
0.9999999999810663
 40
2.0
 40
2.0
 40
2.0
 40
2.0
 10
21.1023044689509
 20
-1.143632921977792
 30
0.0
 10
21.27835404197963
 20
-2.452326332660057
 30
0.0
 10
22.44157050179117
 20
-4.977962818004967
 30
0.0
 10
24.12593477996876
 20
-10.05415153396054
 30
0.0
 10
24.12593477996876
 20
-12.17656627826852
 30
0.0
  0
LINE
  5
20B
330
1F
100
AcDbEntity
  8
SETUP
100
AcDbLine
 10
24.12593477996876
 20
-12.17656627826852
 30
0.0
 11
23.54483890661032
 21
-12.17656627826852
 31
0.0
  0
ARC
  5
20C
330
1F
100
AcDbEntity
  8
SETUP
100
AcDbCircle
 10
27.68019299144382
 20
5.183002768466048
 30
0.0
 40
0.5
100
AcDbArc
 50
190.3329252555824
 51
270.0
  0
SPLINE
  5
20D
330
1F
100
AcDbEntity
  8
SETUP
100
AcDbSpline
210
0.0
220
0.0
230
1.0
 70
    12
 71
     3
 72
    11
 73
     7
 74
     0
 42
0.0000000001
 43
0.0000000001
 40
-0.9759947717667035
 40
-0.9759947717667035
 40
-0.9759947717667035
 40
-0.9759947717667035
 40
-0.9187432018119346
 40
-0.9187432018119346
 40
-0.9187432018119346
 40
-0.0683991490523112
 40
-0.0683991490523112
 40
-0.0683991490523112
 40
-0.0683991490523112
 10
27.18830192841518
 20
5.093318978890939
 30
0.0
 41
1.0
 10
27.13499795185619
 20
5.382776308545773
 30
0.0
 41
0.9999568079355868
 10
27.08020945738638
 20
5.671946740977306
 30
0.0
 41
0.9999568079355868
 10
27.02122974408687
 20
5.960303759007227
 30
0.0
 41
1.0
 10
26.14822270522316
 20
10.24364804220766
 30
0.0
 41
1.0
 10
24.87936262215027
 20
12.76840815833844
 30
0.0
 41
1.0
 10
22.48603171441744
 20
14.92025538942981
 30
0.0
 41
1.0
  0
ARC
  5
20E
330
1F
100
AcDbEntity
  8
SETUP
100
AcDbCircle
 10
21.14884076267063
 20
13.43300276846508
 30
0.0
 40
2.0
100
AcDbArc
 50
48.04124470302094
 51
90.00000000003756
  0
LINE
  5
20F
330
1F
100
AcDbEntity
  8
SETUP
100
AcDbLine
 10
21.14884076266932
 20
15.43300276846508
 30
0.0
 11
-0.9969311371851344
 21
15.43300276846606
 31
0.0
  0
ARC
  5
210
330
1F
100
AcDbEntity
  8
SETUP
100
AcDbCircle
 10
-0.996931137185138
 20
14.43300276846607
 30
0.0
 40
0.9999999999999964
100
AcDbArc
 50
89.9999999999998
 51
136.1869385395966
  0
ARC
  5
211
330
1F
100
AcDbEntity
  8
SETUP
100
AcDbCircle
 10
-3.342139017096858
 20
16.68300276846605
 30
0.0
 40
2.249999999999997
100
AcDbArc
 50
43.81306146040303
 51
316.1869385395973
  0
ARC
  5
212
330
1F
100
AcDbEntity
  8
SETUP
100
AcDbCircle
 10
-0.9969311371851411
 20
18.93300276846604
 30
0.0
 40
1.0
100
AcDbArc
 50
223.813061460403
 51
270.0000000000011
  0
LINE
  5
213
330
1F
100
AcDbEntity
  8
SETUP
100
AcDbLine
 10
-0.9969311371851219
 20
17.93300276846604
 30
0.0
 11
21.14884076266932
 21
17.93300276846605
 31
0.0
  0
ARC
  5
214
330
1F
100
AcDbEntity
  8
SETUP
100
AcDbCircle
 10
21.14884076267063
 20
19.9330027680648
 30
0.0
 40
2.000000000000012
100
AcDbArc
 50
269.9999999999625
 51
311.9587552969789
  0
SPLINE
  5
215
330
1F
100
AcDbEntity
  8
SETUP
100
AcDbSpline
210
0.0
220
0.0
230
1.0
 70
    12
 71
     3
 72
    11
 73
     7
 74
     0
 42
0.0000000001
 43
0.0000000001
 40
0.0683991490523112
 40
0.0683991490523112
 40
0.0683991490523112
 40
0.0683991490523112
 40
0.9187432018119346
 40
0.9187432018119346
 40
0.9187432018119346
 40
0.9759947717667035
 40
0.9759947717667035
 40
0.9759947717667035
 40
0.9759947717667035
 10
22.48603171441744
 20
18.44575014710005
 30
0.0
 41
1.0
 10
24.87936262215027
 20
20.59759737819141
 30
0.0
 41
1.0
 10
26.14822270522316
 20
23.12235749432219
 30
0.0
 41
1.0
 10
27.02122974408687
 20
27.40570177752262
 30
0.0
 41
1.0
 10
27.08020945738638
 20
27.69405879555254
 30
0.0
 41
0.9999568079355868
 10
27.13499795185619
 20
27.98322922798408
 30
0.0
 41
0.9999568079355868
 10
27.18830192841518
 20
28.27268655763891
 30
0.0
 41
1.0
  0
ARC
  5
216
330
1F
100
AcDbEntity
  8
SETUP
100
AcDbCircle
 10
27.68019299144382
 20
28.1830027680638
 30
0.0
 40
0.5
100
AcDbArc
 50
90.0
 51
169.6670747444177
  0
LINE
  5
217
330
1F
100
AcDbEntity
  8
SETUP
100
AcDbLine
 10
27.68019299144382
 20
28.6830027680638
 30
0.0
 11
28.26128886480226
 21
28.6830027680638
 31
0.0
  0
SPLINE
  5
218
330
1F
100
AcDbEntity
  8
SETUP
100
AcDbSpline
210
0.0
220
0.0
230
1.0
 70
    12
 71
     3
 72
    54
 73
    50
 74
     0
 42
0.0000000001
 43
0.0000000001
 40
77.1798675356659
 40
77.1798675356659
 40
77.1798675356659
 40
77.1798675356659
 40
78.17986753568483
 40
78.98870257789184
 40
78.98870257789184
 40
78.98870257789184
 40
79.03271849197155
 40
79.03271849197155
 40
79.03271849197155
 40
79.14275507534887
 40
79.14275507534887
 40
79.14275507534887
 40
81.65644841703114
 40
81.65644841703114
 40
81.65644841703114
 40
82.04849023042709
 40
82.04849023042709
 40
82.04849023042709
 40
83.8703713613557
 40
83.8703713613557
 40
83.8703713613557
 40
83.9303492864465
 40
83.9303492864465
 40
83.9303492864465
 40
83.99032721153729
 40
83.99032721153729
 40
83.99032721153729
 40
84.0787353849582
 40
84.0787353849582
 40
84.0787353849582
 40
84.13883271689372
 40
84.13883271689372
 40
84.13883271689372
 40
84.19893004882925
 40
84.19893004882925
 40
84.19893004882925
 40
86.09083535763004
 40
86.09083535763004
 40
86.09083535763004
 40
86.48287717102598
 40
86.48287717102598
 40
86.48287717102598
 40
88.9990053208644
 40
88.9990053208644
 40
88.9990053208644
 40
89.10880187143502
 40
89.10880187143502
 40
89.10880187143502
 40
89.15288404638278
 40
89.15288404638278
 40
89.15288404638278
 40
89.15288404638278
 10
28.26128886480226
 20
28.6830027680638
 30
0.0
 41
1.0
 10
28.26128886480226
 20
26.56058802375582
 30
0.0
 41
1.0
 10
26.57692458662466
 20
21.48439930780021
 30
0.0
 41
1.0
 10
25.41370812681312
 20
18.9587628224553
 30
0.0
 41
1.0
 10
25.23765855378438
 20
17.65006941177301
 30
0.0
 41
1.0
 10
25.22807776833376
 20
17.57884906983934
 30
0.0
 41
0.9999246083501173
 10
25.21956912690866
 20
17.50749269958343
 30
0.0
 41
0.9999246083501173
 10
25.21213455395063
 20
17.43601644002873
 30
0.0
 41
1.0
 10
25.20795438551042
 20
17.39582814594882
 30
0.0
 41
0.8285227323630414
 10
25.17794211345025
 20
17.36877567258633
 30
0.0
 41
0.8285227323630414
 10
25.13753700499547
 20
17.36877567258633
 30
0.0
 41
1.0
 10
24.29963922443471
 20
17.36877567258633
 30
0.0
 41
1.0
 10
23.46174144387396
 20
17.36877567258633
 30
0.0
 41
1.0
 10
22.6238436633132
 20
17.36877567258633
 30
0.0
 41
1.0
 10
22.6238436633132
 20
17.23809506812102
 30
0.0
 41
1.0
 10
22.6238436633132
 20
17.1074144636557
 30
0.0
 41
1.0
 10
22.6238436633132
 20
16.97673385919038
 30
0.0
 41
1.0
 10
23.44977586960301
 20
16.97673385919037
 30
0.0
 41
1.0
 10
24.27570807589283
 20
16.97673385919036
 30
0.0
 41
1.0
 10
25.10164028218264
 20
16.97673385919035
 30
0.0
 41
1.0
 10
25.12218481343515
 20
16.97673385919035
 30
0.0
 41
0.9474121954614908
 10
25.1411087569969
 20
16.96873622676211
 30
0.0
 41
0.9474121954614908
 10
25.15542660693252
 20
16.95400269569836
 30
0.0
 41
1.0
 10
25.16974445686814
 20
16.93926916463461
 30
0.0
 41
0.9474121954614908
 10
25.17719738029615
 20
16.92012414709057
 30
0.0
 41
0.9474121954614908
 10
25.17660957857513
 20
16.89958802638771
 30
0.0
 41
1.0
 10
25.17247943152693
 20
16.75529243270344
 30
0.0
 41
0.9996958668257466
 10
25.1727092572705
 20
16.61093792584112
 30
0.0
 41
0.9996958668257466
 10
25.17729884611296
 20
16.46665621478392
 30
0.0
 41
1.0
 10
25.17795340850658
 20
16.44607890701302
 30
0.0
 41
0.9472054096734072
 10
25.17053065729093
 20
16.42687586529001
 30
0.0
 41
0.9472054096734072
 10
25.15620623579457
 20
16.41208853977725
 30
0.0
 41
1.0
 10
25.14188181429823
 20
16.39730121426449
 30
0.0
 41
0.9472054096734072
 10
25.12292447841487
 20
16.3892716773394
 30
0.0
 41
0.9472054096734072
 10
25.10233676248946
 20
16.3892716773394
 30
0.0
 41
1.0
 10
24.27617239609738
 20
16.38927167733943
 30
0.0
 41
1.0
 10
23.45000802970529
 20
16.38927167733945
 30
0.0
 41
1.0
 10
22.6238436633132
 20
16.38927167733948
 30
0.0
 41
1.0
 10
22.6238436633132
 20
16.25859107287416
 30
0.0
 41
1.0
 10
22.6238436633132
 20
16.12791046840885
 30
0.0
 41
1.0
 10
22.6238436633132
 20
15.99722986394354
 30
0.0
 41
1.0
 10
23.46255304659267
 20
15.99722986394354
 30
0.0
 41
1.0
 10
24.30126242987214
 20
15.99722986394354
 30
0.0
 41
1.0
 10
25.13997181315162
 20
15.99722986394354
 30
0.0
 41
1.0
 10
25.18027042847938
 20
15.99722986394354
 30
0.0
 41
0.8292363620836167
 10
25.21024673657259
 20
15.97029662517738
 30
0.0
 41
0.8292363620836167
 10
25.21454414716737
 20
15.93022780114279
 30
0.0
 41
1.0
 10
25.22221897402414
 20
15.85866813049058
 30
0.0
 41
0.9999243811967431
 10
25.22747129601765
 20
15.78717164417531
 30
0.0
 41
0.9999243811967431
 10
25.2376585537844
 20
15.71593612475679
 30
0.0
 41
1.0
  0
SPLINE
  5
219
330
1F
100
AcDbEntity
  8
SETUP
100
AcDbSpline
210
0.0
220
0.0
230
1.0
 70
     8
 71
     3
 72
     9
 73
     5
 74
     0
 42
0.0000000001
 43
0.0000000001
 40
0.1911649577740766
 40
0.1911649577740766
 40
0.1911649577740766
 40
0.1911649577740766
 40
0.9999999999810663
 40
2.0
 40
2.0
 40
2.0
 40
2.0
 10
25.2376585537844
 20
15.71593612475679
 30
0.0
 10
25.41370812681313
 20
14.40724271407452
 30
0.0
 10
26.57692458662467
 20
11.88160622872961
 30
0.0
 10
28.26128886480226
 20
6.805417512774039
 30
0.0
 10
28.26128886480226
 20
4.683002768466053
 30
0.0
  0
LINE
  5
21A
330
1F
100
AcDbEntity
  8
SETUP
100
AcDbLine
 10
28.26128886480226
 20
4.683002768466053
 30
0.0
 11
27.68019299144382
 21
4.683002768466048
 31
0.0
  0
LINE
  5
21B
330
1F
100
AcDbEntity
  8
SETUP
100
AcDbLine
 10
-1.508819170416958
 20
16.63786225774627
 30
0.0
 11
1.368231913985445
 21
16.63786225774627
 31
0.0
  0
LINE
  5
21C
330
1F
100
AcDbEntity
  8
SETUP
100
AcDbLine
 10
1.368231913985445
 20
16.63786225774627
 30
0.0
 11
1.368231913985445
 21
16.7281432791872
 31
0.0
  0
LINE
  5
21D
330
1F
100
AcDbEntity
  8
SETUP
100
AcDbLine
 10
1.368231913985445
 20
16.7281432791872
 30
0.0
 11
-1.508819170416958
 21
16.7281432791872
 31
0.0
  0
LINE
  5
21E
330
1F
100
AcDbEntity
  8
SETUP
100
AcDbLine
 10
-1.508819170416958
 20
16.7281432791872
 30
0.0
 11
-1.508819170416958
 21
16.63786225774627
 31
0.0
  0
ENDSEC
  0
SECTION
  2
OBJECTS
  0
DICTIONARY
  5
C
330
0
100
AcDbDictionary
281
     1
  3
ACAD_GROUP
350
D
  3
ACAD_LAYOUT
350
1A
  3
ACAD_MLEADERSTYLE
350
220
  3
ACAD_MLINESTYLE
350
17
  3
ACAD_PLOTSETTINGS
350
19
  3
ACAD_PLOTSTYLENAME
350
E
  3
ACAD_TABLESTYLE
350
21F
  3
ACAD_VISUALSTYLE
350
2A
  0
DICTIONARY
  5
D
102
{ACAD_REACTORS
330
C
102
}
330
C
100
AcDbDictionary
281
     1
  0
DICTIONARY
  5
1A
102
{ACAD_REACTORS
330
C
102
}
330
C
100
AcDbDictionary
281
     1
  3
Layout1
350
1E
  3
Layout2
350
26
  3
Model
350
22
  0
DICTIONARY
  5
220
102
{ACAD_REACTORS
330
C
102
}
330
C
100
AcDbDictionary
281
     1
  0
DICTIONARY
  5
17
102
{ACAD_REACTORS
330
C
102
}
330
C
100
AcDbDictionary
281
     1
  3
Standard
350
18
  0
DICTIONARY
  5
19
102
{ACAD_REACTORS
330
C
102
}
330
C
100
AcDbDictionary
281
     1
  0
ACDBDICTIONARYWDFLT
  5
E
102
{ACAD_REACTORS
330
C
102
}
330
C
100
AcDbDictionary
281
     1
  3
Normal
350
F
100
AcDbDictionaryWithDefault
340
F
  0
DICTIONARY
  5
21F
102
{ACAD_REACTORS
330
C
102
}
330
C
100
AcDbDictionary
281
     1
  0
DICTIONARY
  5
2A
102
{ACAD_REACTORS
330
C
102
}
330
C
100
AcDbDictionary
281
     1
  3
2dWireframe
350
2F
  3
3D Hidden
350
31
  3
3dWireframe
350
30
  3
Basic
350
32
  3
Brighten
350
36
  3
ColorChange
350
3A
  3
Conceptual
350
34
  3
Dim
350
35
  3
Facepattern
350
39
  3
Flat
350
2B
  3
FlatWithEdges
350
2C
  3
Gouraud
350
2D
  3
GouraudWithEdges
350
2E
  3
Linepattern
350
38
  3
Realistic
350
33
  3
Thicken
350
37
  0
LAYOUT
  5
1E
102
{ACAD_REACTORS
330
1A
102
}
330
1A
100
AcDbPlotSettings
  1

  2
none_device
  4

  6

 40
0.0
 41
0.0
 42
0.0
 43
0.0
 44
0.0
 45
0.0
 46
0.0
 47
0.0
 48
0.0
 49
0.0
140
0.0
141
0.0
142
1.0
143
1.0
 70
   688
 72
     0
 73
     0
 74
     5
  7

 75
    16
 76
     0
 77
     2
 78
   300
147
1.0
148
0.0
149
0.0
100
AcDbLayout
  1
Layout1
 70
     1
 71
     1
 10
0.0
 20
0.0
 11
12.0
 21
9.0
 12
0.0
 22
0.0
 32
0.0
 14
1.000000000000000E+20
 24
1.000000000000000E+20
 34
1.000000000000000E+20
 15
-1.000000000000000E+20
 25
-1.000000000000000E+20
 35
-1.000000000000000E+20
146
0.0
 13
0.0
 23
0.0
 33
0.0
 16
1.0
 26
0.0
 36
0.0
 17
0.0
 27
1.0
 37
0.0
 76
     0
330
1B
  0
LAYOUT
  5
26
102
{ACAD_REACTORS
330
1A
102
}
330
1A
100
AcDbPlotSettings
  1

  2
none_device
  4

  6

 40
0.0
 41
0.0
 42
0.0
 43
0.0
 44
0.0
 45
0.0
 46
0.0
 47
0.0
 48
0.0
 49
0.0
140
0.0
141
0.0
142
1.0
143
1.0
 70
   688
 72
     0
 73
     0
 74
     5
  7

 75
    16
 76
     0
 77
     2
 78
   300
147
1.0
148
0.0
149
0.0
100
AcDbLayout
  1
Layout2
 70
     1
 71
     2
 10
0.0
 20
0.0
 11
0.0
 21
0.0
 12
0.0
 22
0.0
 32
0.0
 14
0.0
 24
0.0
 34
0.0
 15
0.0
 25
0.0
 35
0.0
146
0.0
 13
0.0
 23
0.0
 33
0.0
 16
1.0
 26
0.0
 36
0.0
 17
0.0
 27
1.0
 37
0.0
 76
     0
330
23
  0
LAYOUT
  5
22
102
{ACAD_REACTORS
330
1A
102
}
330
1A
100
AcDbPlotSettings
  1

  2
none_device
  4

  6

 40
0.0
 41
0.0
 42
0.0
 43
0.0
 44
0.0
 45
0.0
 46
0.0
 47
0.0
 48
0.0
 49
0.0
140
0.0
141
0.0
142
1.0
143
1.0
 70
  1712
 72
     0
 73
     0
 74
     0
  7

 75
     0
 76
     0
 77
     2
 78
   300
147
1.0
148
0.0
149
0.0
100
AcDbLayout
  1
Model
 70
     1
 71
     0
 10
0.0
 20
0.0
 11
12.0
 21
9.0
 12
0.0
 22
0.0
 32
0.0
 14
-8.0
 24
-13.26380274578375
 34
0.0
 15
29.0
 25
30.73619725421624
 35
0.0000000000000053
146
0.0
 13
0.0
 23
0.0
 33
0.0
 16
1.0
 26
0.0
 36
0.0
 17
0.0
 27
1.0
 37
0.0
 76
     0
330
1F
331
29
  0
MLINESTYLE
  5
18
102
{ACAD_REACTORS
330
17
102
}
330
17
100
AcDbMlineStyle
  2
Standard
 70
     0
  3

 62
   256
 51
90.0
 52
90.0
 71
     2
 49
0.5
 62
   256
  6
BYLAYER
 49
-0.5
 62
   256
  6
BYLAYER
  0
ACDBPLACEHOLDER
  5
F
102
{ACAD_REACTORS
330
E
102
}
330
E
  0
VISUALSTYLE
  5
2F
102
{ACAD_REACTORS
330
2A
102
}
330
2A
100
AcDbVisualStyle
  2
2dWireframe
 70
     4
 71
     0
 72
     2
 73
     0
 90
        0
 40
-0.6
 41
-30.0
 62
     5
 63
     7
421
 16777215
 74
     1
 91
        4
 64
     7
 65
   257
 75
     1
175
     1
 42
1.0
 92
        0
 66
   257
 43
1.0
 76
     1
 77
     6
 78
     2
 67
     7
 79
     5
170
     0
171
     0
290
     0
174
     0
 93
        1
 44
0.0
173
     0
291
     0
 45
0.0
1001
ACAD
1000
AcDbSavedByObjectVersion
1070
     0
  0
VISUALSTYLE
  5
31
102
{ACAD_REACTORS
330
2A
102
}
330
2A
100
AcDbVisualStyle
  2
3D Hidden
 70
     6
 71
     1
 72
     2
 73
     2
 90
        0
 40
-0.6
 41
-30.0
 62
     5
 63
     7
421
 16777215
 74
     2
 91
        2
 64
     7
 65
   257
 75
     2
175
     1
 42
40.0
 92
        0
 66
   257
 43
1.0
 76
     1
 77
     6
 78
     2
 67
     7
 79
     3
170
     0
171
     0
290
     0
174
     0
 93
        1
 44
0.0
173
     0
291
     0
 45
0.0
1001
ACAD
1000
AcDbSavedByObjectVersion
1070
     0
  0
VISUALSTYLE
  5
30
102
{ACAD_REACTORS
330
2A
102
}
330
2A
100
AcDbVisualStyle
  2
3dWireframe
 70
     5
 71
     0
 72
     2
 73
     0
 90
        0
 40
-0.6
 41
-30.0
 62
     5
 63
     7
421
 16777215
 74
     1
 91
        4
 64
     7
 65
   257
 75
     1
175
     1
 42
1.0
 92
        0
 66
   257
 43
1.0
 76
     1
 77
     6
 78
     2
 67
     7
 79
     5
170
     0
171
     0
290
     0
174
     0
 93
        1
 44
0.0
173
     0
291
     0
 45
0.0
1001
ACAD
1000
AcDbSavedByObjectVersion
1070
     0
  0
VISUALSTYLE
  5
32
102
{ACAD_REACTORS
330
2A
102
}
330
2A
100
AcDbVisualStyle
  2
Basic
 70
     7
 71
     1
 72
     0
 73
     1
 90
        0
 40
-0.6
 41
-30.0
 62
     5
 63
     7
421
 16777215
 74
     0
 91
        4
 64
     7
 65
   257
 75
     1
175
     1
 42
1.0
 92
        8
 66
     7
 43
1.0
 76
     1
 77
     6
 78
     2
 67
     7
 79
     5
170
     0
171
     0
290
     0
174
     0
 93
        1
 44
0.0
173
     0
291
     1
 45
0.0
1001
ACAD
1000
AcDbSavedByObjectVersion
1070
     0
  0
VISUALSTYLE
  5
36
102
{ACAD_REACTORS
330
2A
102
}
330
2A
100
AcDbVisualStyle
  2
Brighten
 70
    12
 71
     2
 72
     2
 73
     0
 90
        0
 40
-0.6
 41
-30.0
 62
     5
 63
     7
421
 16777215
 74
     1
 91
        4
 64
     7
 65
   257
 75
     1
175
     1
 42
1.0
 92
        8
 66
     7
 43
1.0
 76
     1
 77
     6
 78
     2
 67
     7
 79
     5
170
     0
171
     0
290
     0
174
     0
 93
        1
 44
50.0
173
     0
291
     1
 45
0.0
1001
ACAD
1000
AcDbSavedByObjectVersion
1070
     0
  0
VISUALSTYLE
  5
3A
102
{ACAD_REACTORS
330
2A
102
}
330
2A
100
AcDbVisualStyle
  2
ColorChange
 70
    16
 71
     2
 72
     2
 73
     3
 90
        0
 40
-0.6
 41
-30.0
 62
     5
 63
     8
421
  8421504
 74
     1
 91
        4
 64
     7
 65
   257
 75
     1
175
     1
 42
1.0
 92
        8
 66
     8
424
  8421504
 43
1.0
 76
     1
 77
     6
 78
     2
 67
     7
 79
     5
170
     0
171
     0
290
     0
174
     0
 93
        1
 44
0.0
173
     0
291
     1
 45
0.0
1001
ACAD
1000
AcDbSavedByObjectVersion
1070
     0
  0
VISUALSTYLE
  5
34
102
{ACAD_REACTORS
330
2A
102
}
330
2A
100
AcDbVisualStyle
  2
Conceptual
 70
     9
 71
     3
 72
     2
 73
     0
 90
        0
 40
-0.6
 41
-30.0
 62
     5
 63
     7
421
 16777215
 74
     2
 91
        2
 64
     7
 65
   257
 75
     1
175
     1
 42
40.0
 92
        8
 66
     7
 43
1.0
 76
     1
 77
     6
 78
     2
 67
     7
 79
     3
170
     0
171
     0
290
     0
174
     0
 93
        1
 44
0.0
173
     0
291
     0
 45
0.0
1001
ACAD
1000
AcDbSavedByObjectVersion
1070
     0
  0
VISUALSTYLE
  5
35
102
{ACAD_REACTORS
330
2A
102
}
330
2A
100
AcDbVisualStyle
  2
Dim
 70
    11
 71
     2
 72
     2
 73
     0
 90
        0
 40
-0.6
 41
-30.0
 62
     5
 63
     7
421
 16777215
 74
     1
 91
        4
 64
     7
 65
   257
 75
     1
175
     1
 42
1.0
 92
        8
 66
     7
 43
1.0
 76
     1
 77
     6
 78
     2
 67
     7
 79
     5
170
     0
171
     0
290
     0
174
     0
 93
        1
 44
-50.0
173
     0
291
     1
 45
0.0
1001
ACAD
1000
AcDbSavedByObjectVersion
1070
     0
  0
VISUALSTYLE
  5
39
102
{ACAD_REACTORS
330
2A
102
}
330
2A
100
AcDbVisualStyle
  2
Facepattern
 70
    15
 71
     2
 72
     2
 73
     0
 90
        0
 40
-0.6
 41
-30.0
 62
     5
 63
     7
421
 16777215
 74
     1
 91
        4
 64
     7
 65
   257
 75
     1
175
     1
 42
1.0
 92
        8
 66
     7
 43
1.0
 76
     1
 77
     6
 78
     2
 67
     7
 79
     5
170
     0
171
     0
290
     0
174
     0
 93
        1
 44
0.0
173
     0
291
     1
 45
0.0
1001
ACAD
1000
AcDbSavedByObjectVersion
1070
     0
  0
VISUALSTYLE
  5
2B
102
{ACAD_REACTORS
330
2A
102
}
330
2A
100
AcDbVisualStyle
  2
Flat
 70
     0
 71
     2
 72
     1
 73
     1
 90
        2
 40
-0.6
 41
30.0
 62
     5
 63
     7
421
 16777215
 74
     0
 91
        4
 64
     7
 65
   257
 75
     1
175
     1
 42
1.0
 92
        8
 66
     7
 43
1.0
 76
     1
 77
     6
 78
     2
 67
     7
 79
     5
170
     0
171
     0
290
     0
174
     0
 93
       13
 44
0.0
173
     0
291
     1
 45
0.0
1001
ACAD
1000
AcDbSavedByObjectVersion
1070
     0
  0
VISUALSTYLE
  5
2C
102
{ACAD_REACTORS
330
2A
102
}
330
2A
100
AcDbVisualStyle
  2
FlatWithEdges
 70
     1
 71
     2
 72
     1
 73
     1
 90
        2
 40
-0.6
 41
30.0
 62
     5
 63
     7
421
 16777215
 74
     1
 91
        4
 64
     7
 65
   257
 75
     1
175
     1
 42
1.0
 92
        0
 66
   257
 43
1.0
 76
     1
 77
     6
 78
     2
 67
     7
 79
     5
170
     0
171
     0
290
     0
174
     0
 93
       13
 44
0.0
173
     0
291
     1
 45
0.0
1001
ACAD
1000
AcDbSavedByObjectVersion
1070
     0
  0
VISUALSTYLE
  5
2D
102
{ACAD_REACTORS
330
2A
102
}
330
2A
100
AcDbVisualStyle
  2
Gouraud
 70
     2
 71
     2
 72
     2
 73
     1
 90
        2
 40
-0.6
 41
30.0
 62
     5
 63
     7
421
 16777215
 74
     0
 91
        4
 64
     7
 65
   257
 75
     1
175
     1
 42
1.0
 92
        0
 66
     7
 43
1.0
 76
     1
 77
     6
 78
     2
 67
     7
 79
     5
170
     0
171
     0
290
     0
174
     0
 93
       13
 44
0.0
173
     0
291
     1
 45
0.0
1001
ACAD
1000
AcDbSavedByObjectVersion
1070
     0
  0
VISUALSTYLE
  5
2E
102
{ACAD_REACTORS
330
2A
102
}
330
2A
100
AcDbVisualStyle
  2
GouraudWithEdges
 70
     3
 71
     2
 72
     2
 73
     1
 90
        2
 40
-0.6
 41
30.0
 62
     5
 63
     7
421
 16777215
 74
     1
 91
        4
 64
     7
 65
   257
 75
     1
175
     1
 42
1.0
 92
        0
 66
   257
 43
1.0
 76
     1
 77
     6
 78
     2
 67
     7
 79
     5
170
     0
171
     0
290
     0
174
     0
 93
       13
 44
0.0
173
     0
291
     1
 45
0.0
1001
ACAD
1000
AcDbSavedByObjectVersion
1070
     0
  0
VISUALSTYLE
  5
38
102
{ACAD_REACTORS
330
2A
102
}
330
2A
100
AcDbVisualStyle
  2
Linepattern
 70
    14
 71
     2
 72
     2
 73
     0
 90
        0
 40
-0.6
 41
-30.0
 62
     5
 63
     7
421
 16777215
 74
     1
 91
        4
 64
     7
 65
   257
 75
     7
175
     7
 42
1.0
 92
        8
 66
     7
 43
1.0
 76
     1
 77
     6
 78
     2
 67
     7
 79
     5
170
     0
171
     0
290
     0
174
     0
 93
        1
 44
0.0
173
     0
291
     1
 45
0.0
1001
ACAD
1000
AcDbSavedByObjectVersion
1070
     0
  0
VISUALSTYLE
  5
33
102
{ACAD_REACTORS
330
2A
102
}
330
2A
100
AcDbVisualStyle
  2
Realistic
 70
     8
 71
     2
 72
     2
 73
     0
 90
        0
 40
-0.6
 41
-30.0
 62
     5
 63
     7
421
 16777215
 74
     1
 91
        0
 64
     7
 65
   257
 75
     1
175
     1
 42
1.0
 92
        8
 66
     8
424
  7895160
 43
1.0
 76
     1
 77
     6
 78
     2
 67
     7
 79
     5
170
     0
171
     0
290
     0
174
     0
 93
       13
 44
0.0
173
     0
291
     0
 45
0.0
1001
ACAD
1000
AcDbSavedByObjectVersion
1070
     0
  0
VISUALSTYLE
  5
37
102
{ACAD_REACTORS
330
2A
102
}
330
2A
100
AcDbVisualStyle
  2
Thicken
 70
    13
 71
     2
 72
     2
 73
     0
 90
        0
 40
-0.6
 41
-30.0
 62
     5
 63
     7
421
 16777215
 74
     1
 91
        4
 64
     7
 65
   257
 75
     1
175
     1
 42
1.0
 92
       12
 66
     7
 43
1.0
 76
     1
 77
     6
 78
     2
 67
     7
 79
     5
170
     0
171
     0
290
     0
174
     0
 93
        1
 44
0.0
173
     0
291
     1
 45
0.0
1001
ACAD
1000
AcDbSavedByObjectVersion
1070
     0
  0
ENDSEC
  0
EOF
