  0
SECTION
  2
HEADER
  9
$ACADVER
  1
AC1024
  9
$ACADMAINTVER
 70
     6
  9
$DWGCODEPAGE
  3
UNDEFINED
  9
$INSBASE
 10
0.0
 20
0.0
 30
0.0
  9
$EXTMIN
 10
1.000000000000000E+20
 20
1.000000000000000E+20
 30
1.000000000000000E+20
  9
$EXTMAX
 10
-1.000000000000000E+20
 20
-1.000000000000000E+20
 30
-1.000000000000000E+20
  9
$LIMMIN
 10
0.0
 20
0.0
  9
$LIMMAX
 10
12.0
 20
9.0
  9
$ORTHOMODE
 70
     0
  9
$REGENMODE
 70
     1
  9
$FILLMODE
 70
     1
  9
$QTEXTMODE
 70
     0
  9
$MIRRTEXT
 70
     1
  9
$LTSCALE
 40
1.0
  9
$ATTMODE
 70
     1
  9
$TEXTSIZE
 40
0.2
  9
$TRACEWID
 40
0.05
  9
$TEXTSTYLE
  7
Standard
  9
$CLAYER
  8
0
  9
$CELTYPE
  6
ByLayer
  9
$CECOLOR
 62
   256
  9
$CELTSCALE
 40
1.0
  9
$DISPSILH
 70
     0
  9
$DIMSCALE
 40
1.0
  9
$DIMASZ
 40
0.18
  9
$DIMEXO
 40
0.0625
  9
$DIMDLI
 40
0.38
  9
$DIMRND
 40
0.0
  9
$DIMDLE
 40
0.0
  9
$DIMEXE
 40
0.18
  9
$DIMTP
 40
0.0
  9
$DIMTM
 40
0.0
  9
$DIMTXT
 40
0.18
  9
$DIMCEN
 40
0.09
  9
$DIMTSZ
 40
0.0
  9
$DIMTOL
 70
     0
  9
$DIMLIM
 70
     0
  9
$DIMTIH
 70
     1
  9
$DIMTOH
 70
     1
  9
$DIMSE1
 70
     0
  9
$DIMSE2
 70
     0
  9
$DIMTAD
 70
     0
  9
$DIMZIN
 70
     0
  9
$DIMBLK
  1

  9
$DIMASO
 70
     1
  9
$DIMSHO
 70
     1
  9
$DIMPOST
  1

  9
$DIMAPOST
  1

  9
$DIMALT
 70
     0
  9
$DIMALTD
 70
     2
  9
$DIMALTF
 40
25.4
  9
$DIMLFAC
 40
1.0
  9
$DIMTOFL
 70
     0
  9
$DIMTVP
 40
0.0
  9
$DIMTIX
 70
     0
  9
$DIMSOXD
 70
     0
  9
$DIMSAH
 70
     0
  9
$DIMBLK1
  1

  9
$DIMBLK2
  1

  9
$DIMSTYLE
  2
Standard
  9
$DIMCLRD
 70
     0
  9
$DIMCLRE
 70
     0
  9
$DIMCLRT
 70
     0
  9
$DIMTFAC
 40
1.0
  9
$DIMGAP
 40
0.09
  9
$DIMJUST
 70
     0
  9
$DIMSD1
 70
     0
  9
$DIMSD2
 70
     0
  9
$DIMTOLJ
 70
     1
  9
$DIMTZIN
 70
     0
  9
$DIMALTZ
 70
     0
  9
$DIMALTTZ
 70
     0
  9
$DIMUPT
 70
     0
  9
$DIMDEC
 70
     4
  9
$DIMTDEC
 70
     4
  9
$DIMALTU
 70
     2
  9
$DIMALTTD
 70
     2
  9
$DIMTXSTY
  7
Standard
  9
$DIMAUNIT
 70
     0
  9
$DIMADEC
 70
     0
  9
$DIMALTRND
 40
0.0
  9
$DIMAZIN
 70
     0
  9
$DIMDSEP
 70
    46
  9
$DIMATFIT
 70
     3
  9
$DIMFRAC
 70
     0
  9
$DIMLDRBLK
  1

  9
$DIMLUNIT
 70
     2
  9
$DIMLWD
 70
    -2
  9
$DIMLWE
 70
    -2
  9
$DIMTMOVE
 70
     0
  9
$DIMFXL
 40
1.0
  9
$DIMFXLON
 70
     0
  9
$DIMJOGANG
 40
0.7853981633974483
  9
$DIMTFILL
 70
     0
  9
$DIMTFILLCLR
 70
     0
  9
$DIMARCSYM
 70
     0
  9
$DIMLTYPE
  6

  9
$DIMLTEX1
  6

  9
$DIMLTEX2
  6

  9
$DIMTXTDIRECTION
 70
     0
  9
$LUNITS
 70
     2
  9
$LUPREC
 70
     4
  9
$SKETCHINC
 40
0.1
  9
$FILLETRAD
 40
0.5
  9
$AUNITS
 70
     0
  9
$AUPREC
 70
     0
  9
$MENU
  1
.
  9
$ELEVATION
 40
0.0
  9
$PELEVATION
 40
0.0
  9
$THICKNESS
 40
0.0
  9
$LIMCHECK
 70
     0
  9
$CHAMFERA
 40
0.5
  9
$CHAMFERB
 40
0.5
  9
$CHAMFERC
 40
1.0
  9
$CHAMFERD
 40
0.0
  9
$SKPOLY
 70
     0
  9
$TDCREATE
 40
2457126.47716434
  9
$TDUCREATE
 40
2457126.435497685
  9
$TDUPDATE
 40
2457126.47716434
  9
$TDUUPDATE
 40
2457126.435497685
  9
$TDINDWG
 40
0.0000000116
  9
$TDUSRTIMER
 40
0.0000000116
  9
$USRTIMER
 70
     1
  9
$ANGBASE
 50
0.0
  9
$ANGDIR
 70
     0
  9
$PDMODE
 70
     0
  9
$PDSIZE
 40
0.0
  9
$PLINEWID
 40
0.0
  9
$SPLFRAME
 70
     0
  9
$SPLINETYPE
 70
     6
  9
$SPLINESEGS
 70
     8
  9
$HANDSEED
  5
16E
  9
$SURFTAB1
 70
     6
  9
$SURFTAB2
 70
     6
  9
$SURFTYPE
 70
     6
  9
$SURFU
 70
     6
  9
$SURFV
 70
     6
  9
$UCSBASE
  2

  9
$UCSNAME
  2

  9
$UCSORG
 10
0.0
 20
0.0
 30
0.0
  9
$UCSXDIR
 10
1.0
 20
0.0
 30
0.0
  9
$UCSYDIR
 10
0.0
 20
1.0
 30
0.0
  9
$UCSORTHOREF
  2

  9
$UCSORTHOVIEW
 70
     0
  9
$UCSORGTOP
 10
0.0
 20
0.0
 30
0.0
  9
$UCSORGBOTTOM
 10
0.0
 20
0.0
 30
0.0
  9
$UCSORGLEFT
 10
0.0
 20
0.0
 30
0.0
  9
$UCSORGRIGHT
 10
0.0
 20
0.0
 30
0.0
  9
$UCSORGFRONT
 10
0.0
 20
0.0
 30
0.0
  9
$UCSORGBACK
 10
0.0
 20
0.0
 30
0.0
  9
$PUCSBASE
  2

  9
$PUCSNAME
  2

  9
$PUCSORG
 10
0.0
 20
0.0
 30
0.0
  9
$PUCSXDIR
 10
1.0
 20
0.0
 30
0.0
  9
$PUCSYDIR
 10
0.0
 20
1.0
 30
0.0
  9
$PUCSORTHOREF
  2

  9
$PUCSORTHOVIEW
 70
     0
  9
$PUCSORGTOP
 10
0.0
 20
0.0
 30
0.0
  9
$PUCSORGBOTTOM
 10
0.0
 20
0.0
 30
0.0
  9
$PUCSORGLEFT
 10
0.0
 20
0.0
 30
0.0
  9
$PUCSORGRIGHT
 10
0.0
 20
0.0
 30
0.0
  9
$PUCSORGFRONT
 10
0.0
 20
0.0
 30
0.0
  9
$PUCSORGBACK
 10
0.0
 20
0.0
 30
0.0
  9
$USERI1
 70
     0
  9
$USERI2
 70
     0
  9
$USERI3
 70
     0
  9
$USERI4
 70
     0
  9
$USERI5
 70
     0
  9
$USERR1
 40
0.0
  9
$USERR2
 40
0.0
  9
$USERR3
 40
0.0
  9
$USERR4
 40
0.0
  9
$USERR5
 40
0.0
  9
$WORLDVIEW
 70
     1
  9
$SHADEDGE
 70
     3
  9
$SHADEDIF
 70
    70
  9
$TILEMODE
 70
     1
  9
$MAXACTVP
 70
    64
  9
$PINSBASE
 10
0.0
 20
0.0
 30
0.0
  9
$PLIMCHECK
 70
     0
  9
$PEXTMIN
 10
1.000000000000000E+20
 20
1.000000000000000E+20
 30
1.000000000000000E+20
  9
$PEXTMAX
 10
-1.000000000000000E+20
 20
-1.000000000000000E+20
 30
-1.000000000000000E+20
  9
$PLIMMIN
 10
0.0
 20
0.0
  9
$PLIMMAX
 10
12.0
 20
9.0
  9
$UNITMODE
 70
     0
  9
$VISRETAIN
 70
     1
  9
$PLINEGEN
 70
     0
  9
$PSLTSCALE
 70
     1
  9
$TREEDEPTH
 70
  3020
  9
$CMLSTYLE
  2
Standard
  9
$CMLJUST
 70
     0
  9
$CMLSCALE
 40
1.0
  9
$PROXYGRAPHICS
 70
     1
  9
$MEASUREMENT
 70
     0
  9
$CELWEIGHT
370
    -1
  9
$ENDCAPS
280
     0
  9
$JOINSTYLE
280
     0
  9
$LWDISPLAY
290
     1
  9
$INSUNITS
 70
     1
  9
$HYPERLINKBASE
  1

  9
$STYLESHEET
  1

  9
$XEDIT
290
     1
  9
$CEPSNTYPE
380
     0
  9
$PSTYLEMODE
290
     1
  9
$FINGERPRINTGUID
  2
{FB54C25A-57E9-5B2A-FFEC-25C24EB0C2B5}
  9
$VERSIONGUID
  2
{FAEB1C32-E019-11D5-929B-00C0DF256EC4}
  9
$EXTNAMES
290
     1
  9
$PSVPSCALE
 40
0.0
  9
$OLESTARTUP
290
     0
  9
$SORTENTS
280
   127
  9
$INDEXCTL
280
     0
  9
$HIDETEXT
280
     1
  9
$XCLIPFRAME
280
     2
  9
$HALOGAP
280
     0
  9
$OBSCOLOR
 70
   257
  9
$OBSLTYPE
280
     0
  9
$INTERSECTIONDISPLAY
280
     0
  9
$INTERSECTIONCOLOR
 70
   257
  9
$DIMASSOC
280
     2
  9
$PROJECTNAME
  1

  9
$CAMERADISPLAY
290
     0
  9
$LENSLENGTH
 40
50.0
  9
$CAMERAHEIGHT
 40
0.0
  9
$STEPSPERSEC
 40
2.0
  9
$STEPSIZE
 40
6.0
  9
$3DDWFPREC
 40
2.0
  9
$PSOLWIDTH
 40
0.25
  9
$PSOLHEIGHT
 40
4.0
  9
$LOFTANG1
 40
1.570796326794897
  9
$LOFTANG2
 40
1.570796326794897
  9
$LOFTMAG1
 40
0.0
  9
$LOFTMAG2
 40
0.0
  9
$LOFTPARAM
 70
     7
  9
$LOFTNORMALS
280
     1
  9
$LATITUDE
 40
37.795
  9
$LONGITUDE
 40
-122.394
  9
$NORTHDIRECTION
 40
0.0
  9
$TIMEZONE
 70
 -8000
  9
$LIGHTGLYPHDISPLAY
280
     1
  9
$TILEMODELIGHTSYNCH
280
     1
  9
$CMATERIAL
347
3C
  9
$SOLIDHIST
280
     1
  9
$SHOWHIST
280
     1
  9
$DWFFRAME
280
     2
  9
$DGNFRAME
280
     2
  9
$REALWORLDSCALE
290
     1
  9
$INTERFERECOLOR
 62
   256
  9
$CSHADOW
280
     0
  9
$SHADOWPLANELOCATION
 40
0.0
  0
ENDSEC
  0
SECTION
  2
CLASSES
  0
CLASS
  1
ACDBDICTIONARYWDFLT
  2
AcDbDictionaryWithDefault
  3
ObjectDBX Classes
 90
        0
 91
        4
280
     0
281
     0
  0
CLASS
  1
VISUALSTYLE
  2
AcDbVisualStyle
  3
ObjectDBX Classes
 90
     4095
 91
        4
280
     0
281
     0
  0
CLASS
  1
MATERIAL
  2
AcDbMaterial
  3
ObjectDBX Classes
 90
     1153
 91
        4
280
     0
281
     0
  0
CLASS
  1
SUN
  2
AcDbSun
  3
SCENEOE
 90
     1024
 91
        4
280
     0
281
     0
  0
ENDSEC
  0
SECTION
  2
TABLES
  0
TABLE
  2
VPORT
  5
8
330
0
100
AcDbSymbolTable
 70
     1
  0
VPORT
  5
29
330
8
100
AcDbSymbolTableRecord
100
AcDbViewportTableRecord
  2
*Active
 70
     0
 10
0.0
 20
0.0
 11
1.0
 21
1.0
 12
0.0
 22
0.0
 13
0.0
 23
0.0
 14
0.5
 24
0.5
 15
0.5
 25
0.5
 16
0.0
 26
0.0
 36
1.0
 17
300.0004582583334
 27
-200.0003055055556
 37
0.0
 40
400.0006110111112
 41
1.5
 42
50.0
 43
0.0
 44
0.0
 50
0.0
 51
0.0
 71
     0
 72
   100
 73
     1
 74
     3
 75
     0
 76
     0
 77
     0
 78
     0
281
     0
 65
     1
110
0.0
120
0.0
130
0.0
111
1.0
121
0.0
131
0.0
112
0.0
122
1.0
132
0.0
 79
     0
146
0.0
 60
     3
 61
     5
292
     1
282
     1
141
0.0
142
0.0
 63
   250
361
3F
  0
ENDTAB
  0
TABLE
  2
LTYPE
  5
5
330
0
100
AcDbSymbolTable
 70
     1
  0
LTYPE
  5
14
330
5
100
AcDbSymbolTableRecord
100
AcDbLinetypeTableRecord
  2
ByBlock
 70
     0
  3

 72
    65
 73
     0
 40
0.0
  0
LTYPE
  5
15
330
5
100
AcDbSymbolTableRecord
100
AcDbLinetypeTableRecord
  2
ByLayer
 70
     0
  3

 72
    65
 73
     0
 40
0.0
  0
LTYPE
  5
16
330
5
100
AcDbSymbolTableRecord
100
AcDbLinetypeTableRecord
  2
Continuous
 70
     0
  3
Solid line
 72
    65
 73
     0
 40
0.0
  0
ENDTAB
  0
TABLE
  2
LAYER
  5
2
330
0
100
AcDbSymbolTable
 70
     2
  0
LAYER
  5
10
330
2
100
AcDbSymbolTableRecord
100
AcDbLayerTableRecord
  2
0
 70
     0
 62
     7
  6
Continuous
370
    -3
390
F
347
3E
  0
LAYER
  5
40
330
2
100
AcDbSymbolTableRecord
100
AcDbLayerTableRecord
  2
Layer 1
 70
     0
 62
     7
  6
Continuous
370
    -3
390
F
347
3E
  0
ENDTAB
  0
TABLE
  2
STYLE
  5
3
330
0
100
AcDbSymbolTable
 70
     1
  0
STYLE
  5
11
330
3
100
AcDbSymbolTableRecord
100
AcDbTextStyleTableRecord
  2
Standard
 70
     0
 40
0.0
 41
1.0
 50
0.0
 71
     0
 42
0.2
  3
txt
  4

  0
ENDTAB
  0
TABLE
  2
VIEW
  5
6
330
0
100
AcDbSymbolTable
 70
     0
  0
ENDTAB
  0
TABLE
  2
UCS
  5
7
330
0
100
AcDbSymbolTable
 70
     0
  0
ENDTAB
  0
TABLE
  2
APPID
  5
9
330
0
100
AcDbSymbolTable
 70
     1
  0
APPID
  5
12
330
9
100
AcDbSymbolTableRecord
100
AcDbRegAppTableRecord
  2
ACAD
 70
     0
  0
ENDTAB
  0
TABLE
  2
DIMSTYLE
  5
A
330
0
100
AcDbSymbolTable
 70
     1
100
AcDbDimStyleTable
  0
DIMSTYLE
105
27
330
A
100
AcDbSymbolTableRecord
100
AcDbDimStyleTableRecord
  2
Standard
 70
     0
178
     0
340
11
  0
ENDTAB
  0
TABLE
  2
BLOCK_RECORD
  5
1
330
0
100
AcDbSymbolTable
 70
    13
  0
BLOCK_RECORD
  5
1F
330
1
100
AcDbSymbolTableRecord
100
AcDbBlockTableRecord
  2
*Model_Space
340
22
 70
     0
280
     1
281
     0
  0
BLOCK_RECORD
  5
1B
330
1
100
AcDbSymbolTableRecord
100
AcDbBlockTableRecord
  2
*Paper_Space
340
1E
 70
     0
280
     1
281
     0
  0
BLOCK_RECORD
  5
23
330
1
100
AcDbSymbolTableRecord
100
AcDbBlockTableRecord
  2
*Paper_Space0
340
26
 70
     0
280
     1
281
     0
  0
BLOCK_RECORD
  5
42
330
1
100
AcDbSymbolTableRecord
100
AcDbBlockTableRecord
  2
block 2
340
0
102
{BLKREFS
331
43
102
}
 70
     0
280
     1
281
     0
  0
BLOCK_RECORD
  5
67
330
1
100
AcDbSymbolTableRecord
100
AcDbBlockTableRecord
  2
block 3
340
0
102
{BLKREFS
331
68
102
}
 70
     0
280
     1
281
     0
  0
BLOCK_RECORD
  5
EB
330
1
100
AcDbSymbolTableRecord
100
AcDbBlockTableRecord
  2
block 4
340
0
102
{BLKREFS
331
EC
102
}
 70
     0
280
     1
281
     0
  0
BLOCK_RECORD
  5
EF
330
1
100
AcDbSymbolTableRecord
100
AcDbBlockTableRecord
  2
block 5
340
0
102
{BLKREFS
331
F0
102
}
 70
     0
280
     1
281
     0
  0
BLOCK_RECORD
  5
10B
330
1
100
AcDbSymbolTableRecord
100
AcDbBlockTableRecord
  2
block 6
340
0
102
{BLKREFS
331
10C
102
}
 70
     0
280
     1
281
     0
  0
BLOCK_RECORD
  5
127
330
1
100
AcDbSymbolTableRecord
100
AcDbBlockTableRecord
  2
block 7
340
0
102
{BLKREFS
331
128
102
}
 70
     0
280
     1
281
     0
  0
BLOCK_RECORD
  5
12B
330
1
100
AcDbSymbolTableRecord
100
AcDbBlockTableRecord
  2
block 8
340
0
102
{BLKREFS
331
12C
102
}
 70
     0
280
     1
281
     0
  0
BLOCK_RECORD
  5
140
330
1
100
AcDbSymbolTableRecord
100
AcDbBlockTableRecord
  2
block 9
340
0
102
{BLKREFS
331
141
102
}
 70
     0
280
     1
281
     0
  0
BLOCK_RECORD
  5
144
330
1
100
AcDbSymbolTableRecord
100
AcDbBlockTableRecord
  2
block 10
340
0
102
{BLKREFS
331
145
102
}
 70
     0
280
     1
281
     0
  0
BLOCK_RECORD
  5
149
330
1
100
AcDbSymbolTableRecord
100
AcDbBlockTableRecord
  2
block 11
340
0
102
{BLKREFS
331
14A
102
}
 70
     0
280
     1
281
     0
  0
BLOCK_RECORD
  5
14E
330
1
100
AcDbSymbolTableRecord
100
AcDbBlockTableRecord
  2
block 12
340
0
102
{BLKREFS
331
14F
102
}
 70
     0
280
     1
281
     0
  0
BLOCK_RECORD
  5
153
330
1
100
AcDbSymbolTableRecord
100
AcDbBlockTableRecord
  2
block 13
340
0
102
{BLKREFS
331
154
102
}
 70
     0
280
     1
281
     0
  0
ENDTAB
  0
ENDSEC
  0
SECTION
  2
BLOCKS
  0
BLOCK
  5
20
330
1F
100
AcDbEntity
  8
0
100
AcDbBlockBegin
  2
*Model_Space
 70
     0
 10
0.0
 20
0.0
 30
0.0
  3
*Model_Space
  1

  0
ENDBLK
  5
21
330
1F
100
AcDbEntity
  8
0
100
AcDbBlockEnd
  0
BLOCK
  5
1C
330
1B
100
AcDbEntity
 67
     1
  8
0
100
AcDbBlockBegin
  2
*Paper_Space
 70
     0
 10
0.0
 20
0.0
 30
0.0
  3
*Paper_Space
  1

  0
ENDBLK
  5
1D
330
1B
100
AcDbEntity
 67
     1
  8
0
100
AcDbBlockEnd
  0
BLOCK
  5
24
330
23
100
AcDbEntity
  8
0
100
AcDbBlockBegin
  2
*Paper_Space0
 70
     0
 10
0.0
 20
0.0
 30
0.0
  3
*Paper_Space0
  1

  0
ENDBLK
  5
25
330
23
100
AcDbEntity
  8
0
100
AcDbBlockEnd
  0
BLOCK
  5
44
330
42
100
AcDbEntity
  8
0
100
AcDbBlockBegin
  2
block 2
 70
     0
 10
0.0
 20
0.0
 30
0.0
  3
block 2
  1

  0
SPLINE
  5
46
330
42
100
AcDbEntity
  8
Layer 1
 62
     1
420
 16711680
370
    50
100
AcDbSpline
210
0.0
220
0.0
230
1.0
 70
    11
 71
     3
 72
    17
 73
    13
 74
     0
 42
0.0000000001
 43
0.0000000001
 12
1.0
 22
0.0
 32
0.0
 13
1.0
 23
0.0
 33
0.0
 40
0.0
 40
0.0
 40
0.0
 40
0.0
 40
1.0
 40
1.0
 40
1.0
 40
2.0
 40
2.0
 40
2.0
 40
3.0
 40
3.0
 40
3.0
 40
4.0
 40
4.0
 40
4.0
 40
4.0
 10
103.403167128899
 20
-276.7902032498236
 30
0.0
 10
103.9554518785612
 20
-276.7902032498487
 30
0.0
 10
104.4031671286292
 20
-277.2379184999568
 30
0.0
 10
104.4031671286045
 20
-277.7902032496183
 30
0.0
 10
104.4031671285798
 20
-278.3424879992805
 30
0.0
 10
103.9554518784714
 20
-278.7902032493482
 30
0.0
 10
103.4031671288092
 20
-278.7902032493238
 30
0.0
 10
102.8508823791476
 20
-278.7902032492988
 30
0.0
 10
102.4031671290796
 20
-278.3424879991907
 30
0.0
 10
102.4031671291043
 20
-277.7902032495285
 30
0.0
 10
102.403167129129
 20
-277.2379184998669
 30
0.0
 10
102.8508823792375
 20
-276.7902032497986
 30
0.0
 10
103.403167128899
 20
-276.7902032498236
 30
0.0
  0
SPLINE
  5
47
330
42
100
AcDbEntity
  8
Layer 1
 62
     1
420
 16711680
370
    50
100
AcDbSpline
210
0.0
220
0.0
230
1.0
 70
    11
 71
     3
 72
    17
 73
    13
 74
     0
 42
0.0000000001
 43
0.0000000001
 12
1.0
 22
0.0
 32
0.0
 13
1.0
 23
0.0
 33
0.0
 40
0.0
 40
0.0
 40
0.0
 40
0.0
 40
1.0
 40
1.0
 40
1.0
 40
2.0
 40
2.0
 40
2.0
 40
3.0
 40
3.0
 40
3.0
 40
4.0
 40
4.0
 40
4.0
 40
4.0
 10
103.4031671304702
 20
-241.7906477030184
 30
0.0
 10
103.9554518801324
 20
-241.7906477030427
 30
0.0
 10
104.4031671302007
 20
-242.2383629531509
 30
0.0
 10
104.4031671301757
 20
-242.7906477028131
 30
0.0
 10
104.403167130151
 20
-243.3429324524746
 30
0.0
 10
103.9554518800426
 20
-243.7906477025423
 30
0.0
 10
103.4031671303804
 20
-243.7906477025179
 30
0.0
 10
102.8508823807188
 20
-243.7906477024929
 30
0.0
 10
102.4031671306508
 20
-243.3429324523848
 30
0.0
 10
102.4031671306755
 20
-242.7906477027232
 30
0.0
 10
102.4031671307006
 20
-242.238362953061
 30
0.0
 10
102.8508823808087
 20
-241.7906477029933
 30
0.0
 10
103.4031671304702
 20
-241.7906477030184
 30
0.0
  0
SPLINE
  5
48
330
42
100
AcDbEntity
  8
Layer 1
 62
     1
420
 16711680
370
    50
100
AcDbSpline
210
0.0
220
0.0
230
1.0
 70
    11
 71
     3
 72
    17
 73
    13
 74
     0
 42
0.0000000001
 43
0.0000000001
 12
1.0
 22
0.0
 32
0.0
 13
1.0
 23
0.0
 33
0.0
 40
0.0
 40
0.0
 40
0.0
 40
0.0
 40
1.0
 40
1.0
 40
1.0
 40
2.0
 40
2.0
 40
2.0
 40
3.0
 40
3.0
 40
3.0
 40
4.0
 40
4.0
 40
4.0
 40
4.0
 10
86.90338935598731
 20
-260.2904254754293
 30
0.0
 10
86.90338935596229
 20
-260.8427102250915
 30
0.0
 10
86.45567410585483
 20
-261.2904254751598
 30
0.0
 10
85.90338935619327
 20
-261.2904254751348
 30
0.0
 10
85.35110460653108
 20
-261.2904254751104
 30
0.0
 10
84.90338935646275
 20
-260.8427102250016
 30
0.0
 10
84.90338935648778
 20
-260.2904254753394
 30
0.0
 10
84.90338935651248
 20
-259.7381407256785
 30
0.0
 10
85.35110460662092
 20
-259.2904254756102
 30
0.0
 10
85.90338935628311
 20
-259.2904254756352
 30
0.0
 10
86.45567410594465
 20
-259.2904254756596
 30
0.0
 10
86.90338935601203
 20
-259.7381407257684
 30
0.0
 10
86.90338935598731
 20
-260.2904254754293
 30
0.0
  0
SPLINE
  5
49
330
42
100
AcDbEntity
  8
Layer 1
 62
     1
420
 16711680
370
    50
100
AcDbSpline
210
0.0
220
0.0
230
1.0
 70
    11
 71
     3
 72
    17
 73
    13
 74
     0
 42
0.0000000001
 43
0.0000000001
 12
1.0
 22
0.0
 32
0.0
 13
1.0
 23
0.0
 33
0.0
 40
0.0
 40
0.0
 40
0.0
 40
0.0
 40
1.0
 40
1.0
 40
1.0
 40
2.0
 40
2.0
 40
2.0
 40
3.0
 40
3.0
 40
3.0
 40
4.0
 40
4.0
 40
4.0
 40
4.0
 10
92.73664867198464
 20
-260.2904254756911
 30
0.0
 10
92.73664867195961
 20
-260.8427102253533
 30
0.0
 10
92.28893342185214
 20
-261.2904254754216
 30
0.0
 10
91.73664867219058
 20
-261.2904254753966
 30
0.0
 10
91.18436392252839
 20
-261.2904254753722
 30
0.0
 10
90.73664867246006
 20
-260.8427102252634
 30
0.0
 10
90.73664867248509
 20
-260.2904254756012
 30
0.0
 10
90.7366486725098
 20
-259.7381407259404
 30
0.0
 10
91.18436392261823
 20
-259.290425475872
 30
0.0
 10
91.73664867228042
 20
-259.2904254758971
 30
0.0
 10
92.28893342194196
 20
-259.2904254759214
 30
0.0
 10
92.73664867200934
 20
-259.7381407260302
 30
0.0
 10
92.73664867198464
 20
-260.2904254756911
 30
0.0
  0
SPLINE
  5
4A
330
42
100
AcDbEntity
  8
Layer 1
 62
     1
420
 16711680
370
    50
100
AcDbSpline
210
0.0
220
0.0
230
1.0
 70
    11
 71
     3
 72
    17
 73
    13
 74
     0
 42
0.0000000001
 43
0.0000000001
 12
1.0
 22
0.0
 32
0.0
 13
1.0
 23
0.0
 33
0.0
 40
0.0
 40
0.0
 40
0.0
 40
0.0
 40
1.0
 40
1.0
 40
1.0
 40
2.0
 40
2.0
 40
2.0
 40
3.0
 40
3.0
 40
3.0
 40
4.0
 40
4.0
 40
4.0
 40
4.0
 10
98.56990798798195
 20
-260.2904254759529
 30
0.0
 10
98.56990798795692
 20
-260.8427102256151
 30
0.0
 10
98.12219273784945
 20
-261.2904254756841
 30
0.0
 10
97.5699079881879
 20
-261.2904254756584
 30
0.0
 10
97.01762323852572
 20
-261.290425475634
 30
0.0
 10
96.56990798845737
 20
-260.8427102255259
 30
0.0
 10
96.5699079884824
 20
-260.2904254758637
 30
0.0
 10
96.56990798850711
 20
-259.7381407262022
 30
0.0
 10
97.01762323861554
 20
-259.2904254761339
 30
0.0
 10
97.56990798827773
 20
-259.2904254761589
 30
0.0
 10
98.12219273793929
 20
-259.2904254761833
 30
0.0
 10
98.56990798800665
 20
-259.738140726292
 30
0.0
 10
98.56990798798195
 20
-260.2904254759529
 30
0.0
  0
SPLINE
  5
4B
330
42
100
AcDbEntity
  8
Layer 1
 62
     1
420
 16711680
370
    50
100
AcDbSpline
210
0.0
220
0.0
230
1.0
 70
    11
 71
     3
 72
    17
 73
    13
 74
     0
 42
0.0000000001
 43
0.0000000001
 12
1.0
 22
0.0
 32
0.0
 13
1.0
 23
0.0
 33
0.0
 40
0.0
 40
0.0
 40
0.0
 40
0.0
 40
1.0
 40
1.0
 40
1.0
 40
2.0
 40
2.0
 40
2.0
 40
3.0
 40
3.0
 40
3.0
 40
4.0
 40
4.0
 40
4.0
 40
4.0
 10
104.4031673039793
 20
-260.2904254762154
 30
0.0
 10
104.4031673039542
 20
-260.8427102258776
 30
0.0
 10
103.9554520538468
 20
-261.2904254759459
 30
0.0
 10
103.4031673041852
 20
-261.2904254759209
 30
0.0
 10
102.850882554523
 20
-261.2904254758959
 30
0.0
 10
102.4031673044547
 20
-260.8427102257877
 30
0.0
 10
102.4031673044797
 20
-260.2904254761255
 30
0.0
 10
102.4031673045044
 20
-259.738140726464
 30
0.0
 10
102.8508825546129
 20
-259.2904254763956
 30
0.0
 10
103.403167304275
 20
-259.2904254764207
 30
0.0
 10
103.9554520539366
 20
-259.2904254764451
 30
0.0
 10
104.403167304004
 20
-259.7381407265538
 30
0.0
 10
104.4031673039793
 20
-260.2904254762154
 30
0.0
  0
SPLINE
  5
4C
330
42
100
AcDbEntity
  8
Layer 1
 62
     1
420
 16711680
370
    50
100
AcDbSpline
210
0.0
220
0.0
230
1.0
 70
    11
 71
     3
 72
    17
 73
    13
 74
     0
 42
0.0000000001
 43
0.0000000001
 12
1.0
 22
0.0
 32
0.0
 13
1.0
 23
0.0
 33
0.0
 40
0.0
 40
0.0
 40
0.0
 40
0.0
 40
1.0
 40
1.0
 40
1.0
 40
2.0
 40
2.0
 40
2.0
 40
3.0
 40
3.0
 40
3.0
 40
4.0
 40
4.0
 40
4.0
 40
4.0
 10
110.2364266199766
 20
-260.2904254764772
 30
0.0
 10
110.2364266199515
 20
-260.8427102261394
 30
0.0
 10
109.7887113698441
 20
-261.2904254762077
 30
0.0
 10
109.2364266201825
 20
-261.2904254761827
 30
0.0
 10
108.6841418705203
 20
-261.2904254761576
 30
0.0
 10
108.236426620452
 20
-260.8427102260495
 30
0.0
 10
108.236426620477
 20
-260.2904254763873
 30
0.0
 10
108.2364266205017
 20
-259.7381407267258
 30
0.0
 10
108.6841418706102
 20
-259.2904254766581
 30
0.0
 10
109.2364266202724
 20
-259.2904254766825
 30
0.0
 10
109.7887113699339
 20
-259.2904254767068
 30
0.0
 10
110.2364266200013
 20
-259.7381407268156
 30
0.0
 10
110.2364266199766
 20
-260.2904254764772
 30
0.0
  0
SPLINE
  5
4D
330
42
100
AcDbEntity
  8
Layer 1
 62
     1
420
 16711680
370
    50
100
AcDbSpline
210
0.0
220
0.0
230
1.0
 70
    11
 71
     3
 72
    17
 73
    13
 74
     0
 42
0.0000000001
 43
0.0000000001
 12
1.0
 22
0.0
 32
0.0
 13
1.0
 23
0.0
 33
0.0
 40
0.0
 40
0.0
 40
0.0
 40
0.0
 40
1.0
 40
1.0
 40
1.0
 40
2.0
 40
2.0
 40
2.0
 40
3.0
 40
3.0
 40
3.0
 40
4.0
 40
4.0
 40
4.0
 40
4.0
 10
116.0696859359739
 20
-260.290425476739
 30
0.0
 10
116.0696859359489
 20
-260.8427102264012
 30
0.0
 10
115.6219706858414
 20
-261.2904254764695
 30
0.0
 10
115.0696859361798
 20
-261.2904254764445
 30
0.0
 10
114.5174011865176
 20
-261.2904254764194
 30
0.0
 10
114.0696859364493
 20
-260.8427102263113
 30
0.0
 10
114.0696859364743
 20
-260.2904254766491
 30
0.0
 10
114.069685936499
 20
-259.7381407269876
 30
0.0
 10
114.5174011866075
 20
-259.2904254769199
 30
0.0
 10
115.0696859362697
 20
-259.2904254769443
 30
0.0
 10
115.6219706859312
 20
-259.2904254769687
 30
0.0
 10
116.0696859359986
 20
-259.7381407270775
 30
0.0
 10
116.0696859359739
 20
-260.290425476739
 30
0.0
  0
SPLINE
  5
4E
330
42
100
AcDbEntity
  8
Layer 1
 62
     1
420
 16711680
370
    50
100
AcDbSpline
210
0.0
220
0.0
230
1.0
 70
    11
 71
     3
 72
    17
 73
    13
 74
     0
 42
0.0000000001
 43
0.0000000001
 12
1.0
 22
0.0
 32
0.0
 13
1.0
 23
0.0
 33
0.0
 40
0.0
 40
0.0
 40
0.0
 40
0.0
 40
1.0
 40
1.0
 40
1.0
 40
2.0
 40
2.0
 40
2.0
 40
3.0
 40
3.0
 40
3.0
 40
4.0
 40
4.0
 40
4.0
 40
4.0
 10
103.4031673047088
 20
-249.6239068439256
 30
0.0
 10
102.8508825550467
 20
-249.6239068439006
 30
0.0
 10
102.4031673049786
 20
-249.1761915937931
 30
0.0
 10
102.4031673050033
 20
-248.6239068441315
 30
0.0
 10
102.403167305028
 20
-248.0716220944693
 30
0.0
 10
102.8508825551365
 20
-247.623906844401
 30
0.0
 10
103.4031673047987
 20
-247.623906844426
 30
0.0
 10
103.9554520544596
 20
-247.6239068444504
 30
0.0
 10
104.4031673045276
 20
-248.0716220945592
 30
0.0
 10
104.4031673045029
 20
-248.6239068442214
 30
0.0
 10
104.4031673044782
 20
-249.1761915938829
 30
0.0
 10
103.9554520543697
 20
-249.62390684395
 30
0.0
 10
103.4031673047088
 20
-249.6239068439256
 30
0.0
  0
SPLINE
  5
4F
330
42
100
AcDbEntity
  8
Layer 1
 62
     1
420
 16711680
370
    50
100
AcDbSpline
210
0.0
220
0.0
230
1.0
 70
    11
 71
     3
 72
    17
 73
    13
 74
     0
 42
0.0000000001
 43
0.0000000001
 12
1.0
 22
0.0
 32
0.0
 13
1.0
 23
0.0
 33
0.0
 40
0.0
 40
0.0
 40
0.0
 40
0.0
 40
1.0
 40
1.0
 40
1.0
 40
2.0
 40
2.0
 40
2.0
 40
3.0
 40
3.0
 40
3.0
 40
4.0
 40
4.0
 40
4.0
 40
4.0
 10
103.403167304447
 20
-255.4571661599229
 30
0.0
 10
102.8508825547848
 20
-255.4571661598979
 30
0.0
 10
102.4031673047168
 20
-255.0094509097904
 30
0.0
 10
102.4031673047415
 20
-254.4571661601288
 30
0.0
 10
102.4031673047662
 20
-253.9048814104667
 30
0.0
 10
102.8508825548747
 20
-253.4571661603977
 30
0.0
 10
103.4031673045369
 20
-253.4571661604227
 30
0.0
 10
103.9554520541978
 20
-253.4571661604477
 30
0.0
 10
104.4031673042658
 20
-253.9048814105565
 30
0.0
 10
104.4031673042411
 20
-254.4571661602187
 30
0.0
 10
104.4031673042164
 20
-255.0094509098802
 30
0.0
 10
103.9554520541079
 20
-255.4571661599473
 30
0.0
 10
103.403167304447
 20
-255.4571661599229
 30
0.0
  0
SPLINE
  5
50
330
42
100
AcDbEntity
  8
Layer 1
 62
     1
420
 16711680
370
    50
100
AcDbSpline
210
0.0
220
0.0
230
1.0
 70
    11
 71
     3
 72
    17
 73
    13
 74
     0
 42
0.0000000001
 43
0.0000000001
 12
1.0
 22
0.0
 32
0.0
 13
1.0
 23
0.0
 33
0.0
 40
0.0
 40
0.0
 40
0.0
 40
0.0
 40
1.0
 40
1.0
 40
1.0
 40
2.0
 40
2.0
 40
2.0
 40
3.0
 40
3.0
 40
3.0
 40
4.0
 40
4.0
 40
4.0
 40
4.0
 10
103.4031673039231
 20
-267.1236847919175
 30
0.0
 10
102.8508825542609
 20
-267.1236847918925
 30
0.0
 10
102.4031673041929
 20
-266.675969541785
 30
0.0
 10
102.4031673042176
 20
-266.1236847921235
 30
0.0
 10
102.4031673042426
 20
-265.5714000424613
 30
0.0
 10
102.8508825543507
 20
-265.123684792393
 30
0.0
 10
103.4031673040129
 20
-265.123684792418
 30
0.0
 10
103.9554520536738
 20
-265.1236847924424
 30
0.0
 10
104.4031673037422
 20
-265.5714000425511
 30
0.0
 10
104.4031673037171
 20
-266.1236847922133
 30
0.0
 10
104.4031673036924
 20
-266.6759695418748
 30
0.0
 10
103.955452053584
 20
-267.1236847919419
 30
0.0
 10
103.4031673039231
 20
-267.1236847919175
 30
0.0
  0
SPLINE
  5
51
330
42
100
AcDbEntity
  8
Layer 1
 62
     1
420
 16711680
370
    50
100
AcDbSpline
210
0.0
220
0.0
230
1.0
 70
    11
 71
     3
 72
    17
 73
    13
 74
     0
 42
0.0000000001
 43
0.0000000001
 12
1.0
 22
0.0
 32
0.0
 13
1.0
 23
0.0
 33
0.0
 40
0.0
 40
0.0
 40
0.0
 40
0.0
 40
1.0
 40
1.0
 40
1.0
 40
2.0
 40
2.0
 40
2.0
 40
3.0
 40
3.0
 40
3.0
 40
4.0
 40
4.0
 40
4.0
 40
4.0
 10
103.4031673036613
 20
-272.9569441079149
 30
0.0
 10
102.8508825539991
 20
-272.9569441078898
 30
0.0
 10
102.4031673039311
 20
-272.5092288577823
 30
0.0
 10
102.4031673039558
 20
-271.9569441081208
 30
0.0
 10
102.4031673039805
 20
-271.4046593584586
 30
0.0
 10
102.8508825540889
 20
-270.9569441083902
 30
0.0
 10
103.4031673037511
 20
-270.9569441084153
 30
0.0
 10
103.955452053412
 20
-270.9569441084397
 30
0.0
 10
104.40316730348
 20
-271.4046593585484
 30
0.0
 10
104.4031673034553
 20
-271.9569441082106
 30
0.0
 10
104.4031673034306
 20
-272.5092288578722
 30
0.0
 10
103.9554520533222
 20
-272.9569441079393
 30
0.0
 10
103.4031673036613
 20
-272.9569441079149
 30
0.0
  0
SPLINE
  5
52
330
42
100
AcDbEntity
  8
Layer 1
 62
     1
420
 16711680
370
    50
100
AcDbSpline
210
0.0
220
0.0
230
1.0
 70
    11
 71
     3
 72
    17
 73
    13
 74
     0
 42
0.0000000001
 43
0.0000000001
 12
1.0
 22
0.0
 32
0.0
 13
1.0
 23
0.0
 33
0.0
 40
0.0
 40
0.0
 40
0.0
 40
0.0
 40
1.0
 40
1.0
 40
1.0
 40
2.0
 40
2.0
 40
2.0
 40
3.0
 40
3.0
 40
3.0
 40
4.0
 40
4.0
 40
4.0
 40
4.0
 10
95.86079964788573
 20
-252.7480578194875
 30
0.0
 10
95.47027535624488
 20
-253.1385821111114
 30
0.0
 10
94.83711037748876
 20
-253.1385821110979
 30
0.0
 10
94.44658608586653
 20
-252.7480578194567
 30
0.0
 10
94.056061794243
 20
-252.3575335278162
 30
0.0
 10
94.05606179425713
 20
-251.7243685490601
 30
0.0
 10
94.44658608589796
 20
-251.3338442574369
 30
0.0
 10
94.8371103775388
 20
-250.9433199658143
 30
0.0
 10
95.47027535629493
 20
-250.9433199658285
 30
0.0
 10
95.8607996479178
 20
-251.333844257469
 30
0.0
 10
96.25132393954068
 20
-251.7243685491095
 30
0.0
 10
96.25132393952592
 20
-252.3575335278643
 30
0.0
 10
95.86079964788573
 20
-252.7480578194875
 30
0.0
  0
SPLINE
  5
53
330
42
100
AcDbEntity
  8
Layer 1
 62
     1
420
 16711680
370
    50
100
AcDbSpline
210
0.0
220
0.0
230
1.0
 70
    11
 71
     3
 72
    17
 73
    13
 74
     0
 42
0.0000000001
 43
0.0000000001
 12
1.0
 22
0.0
 32
0.0
 13
1.0
 23
0.0
 33
0.0
 40
0.0
 40
0.0
 40
0.0
 40
0.0
 40
1.0
 40
1.0
 40
1.0
 40
2.0
 40
2.0
 40
2.0
 40
3.0
 40
3.0
 40
3.0
 40
4.0
 40
4.0
 40
4.0
 40
4.0
 10
99.98553686655487
 20
-256.8727950383418
 30
0.0
 10
99.59501257491338
 20
-257.263319329965
 30
0.0
 10
98.9618475961579
 20
-257.2633193299509
 30
0.0
 10
98.57132330453567
 20
-256.8727950383104
 30
0.0
 10
98.18079901291183
 20
-256.4822707466698
 30
0.0
 10
98.18079901292627
 20
-255.8491057679137
 30
0.0
 10
98.57132330456712
 20
-255.4585814762905
 30
0.0
 10
98.961847596207
 20
-255.068057184668
 30
0.0
 10
99.5950125749631
 20
-255.0680571846827
 30
0.0
 10
99.9855368665863
 20
-255.4585814763226
 30
0.0
 10
100.3760611582092
 20
-255.8491057679631
 30
0.0
 10
100.3760611581941
 20
-256.4822707467193
 30
0.0
 10
99.98553686655487
 20
-256.8727950383418
 30
0.0
  0
SPLINE
  5
54
330
42
100
AcDbEntity
  8
Layer 1
 62
     1
420
 16711680
370
    50
100
AcDbSpline
210
0.0
220
0.0
230
1.0
 70
    11
 71
     3
 72
    17
 73
    13
 74
     0
 42
0.0000000001
 43
0.0000000001
 12
1.0
 22
0.0
 32
0.0
 13
1.0
 23
0.0
 33
0.0
 40
0.0
 40
0.0
 40
0.0
 40
0.0
 40
1.0
 40
1.0
 40
1.0
 40
2.0
 40
2.0
 40
2.0
 40
3.0
 40
3.0
 40
3.0
 40
4.0
 40
4.0
 40
4.0
 40
4.0
 10
108.2350113038915
 20
-265.1222694760497
 30
0.0
 10
107.844487012251
 20
-265.5127937676723
 30
0.0
 10
107.2113220334955
 20
-265.5127937676594
 30
0.0
 10
106.8207977418724
 20
-265.1222694760189
 30
0.0
 10
106.4302734502488
 20
-264.7317451843771
 30
0.0
 10
106.4302734502633
 20
-264.0985802056223
 30
0.0
 10
106.8207977419038
 20
-263.7080559139985
 30
0.0
 10
107.2113220335446
 20
-263.3175316223759
 30
0.0
 10
107.8444870123008
 20
-263.31753162239
 30
0.0
 10
108.2350113039236
 20
-263.7080559140311
 30
0.0
 10
108.6255355955468
 20
-264.0985802056711
 30
0.0
 10
108.6255355955317
 20
-264.7317451844265
 30
0.0
 10
108.2350113038915
 20
-265.1222694760497
 30
0.0
  0
SPLINE
  5
55
330
42
100
AcDbEntity
  8
Layer 1
 62
     1
420
 16711680
370
    50
100
AcDbSpline
210
0.0
220
0.0
230
1.0
 70
    11
 71
     3
 72
    17
 73
    13
 74
     0
 42
0.0000000001
 43
0.0000000001
 12
1.0
 22
0.0
 32
0.0
 13
1.0
 23
0.0
 33
0.0
 40
0.0
 40
0.0
 40
0.0
 40
0.0
 40
1.0
 40
1.0
 40
1.0
 40
2.0
 40
2.0
 40
2.0
 40
3.0
 40
3.0
 40
3.0
 40
4.0
 40
4.0
 40
4.0
 40
4.0
 10
112.3597485225607
 20
-269.2470066949033
 30
0.0
 10
111.9692242309195
 20
-269.6375309865265
 30
0.0
 10
111.336059252164
 20
-269.6375309865131
 30
0.0
 10
110.9455349605415
 20
-269.2470066948725
 30
0.0
 10
110.555010668918
 20
-268.8564824032314
 30
0.0
 10
110.5550106689324
 20
-268.2233174244753
 30
0.0
 10
110.9455349605729
 20
-267.8327931328521
 30
0.0
 10
111.3360592522131
 20
-267.4422688412289
 30
0.0
 10
111.9692242309693
 20
-267.442268841243
 30
0.0
 10
112.3597485225921
 20
-267.8327931328841
 30
0.0
 10
112.750272814216
 20
-268.2233174245247
 30
0.0
 10
112.7502728142002
 20
-268.8564824032808
 30
0.0
 10
112.3597485225607
 20
-269.2470066949033
 30
0.0
  0
SPLINE
  5
56
330
42
100
AcDbEntity
  8
Layer 1
 62
     1
420
 16711680
370
    50
100
AcDbSpline
210
0.0
220
0.0
230
1.0
 70
    11
 71
     3
 72
    17
 73
    13
 74
     0
 42
0.0000000001
 43
0.0000000001
 12
1.0
 22
0.0
 32
0.0
 13
1.0
 23
0.0
 33
0.0
 40
0.0
 40
0.0
 40
0.0
 40
0.0
 40
1.0
 40
1.0
 40
1.0
 40
2.0
 40
2.0
 40
2.0
 40
3.0
 40
3.0
 40
3.0
 40
4.0
 40
4.0
 40
4.0
 40
4.0
 10
110.9455349609114
 20
-252.7480578198264
 30
0.0
 10
110.5550106692892
 20
-252.3575335281858
 30
0.0
 10
110.5550106693027
 20
-251.7243685494304
 30
0.0
 10
110.9455349609429
 20
-251.3338442578072
 30
0.0
 10
111.3360592525837
 20
-250.9433199661846
 30
0.0
 10
111.9692242313398
 20
-250.9433199661987
 30
0.0
 10
112.3597485229627
 20
-251.3338442578392
 30
0.0
 10
112.7502728145856
 20
-251.7243685494791
 30
0.0
 10
112.7502728145715
 20
-252.3575335282353
 30
0.0
 10
112.3597485229306
 20
-252.7480578198584
 30
0.0
 10
111.9692242312898
 20
-253.138582111481
 30
0.0
 10
111.3360592525343
 20
-253.1385821114669
 30
0.0
 10
110.9455349609114
 20
-252.7480578198264
 30
0.0
  0
SPLINE
  5
57
330
42
100
AcDbEntity
  8
Layer 1
 62
     1
420
 16711680
370
    50
100
AcDbSpline
210
0.0
220
0.0
230
1.0
 70
    11
 71
     3
 72
    17
 73
    13
 74
     0
 42
0.0000000001
 43
0.0000000001
 12
1.0
 22
0.0
 32
0.0
 13
1.0
 23
0.0
 33
0.0
 40
0.0
 40
0.0
 40
0.0
 40
0.0
 40
1.0
 40
1.0
 40
1.0
 40
2.0
 40
2.0
 40
2.0
 40
3.0
 40
3.0
 40
3.0
 40
4.0
 40
4.0
 40
4.0
 40
4.0
 10
106.8207977420581
 20
-256.8727950384958
 30
0.0
 10
106.4302734504349
 20
-256.4822707468547
 30
0.0
 10
106.4302734504487
 20
-255.8491057680985
 30
0.0
 10
106.8207977420896
 20
-255.4585814764766
 30
0.0
 10
107.2113220337301
 20
-255.0680571848534
 30
0.0
 10
107.8444870124862
 20
-255.0680571848675
 30
0.0
 10
108.2350113041088
 20
-255.4585814765081
 30
0.0
 10
108.6255355957316
 20
-255.849105768148
 30
0.0
 10
108.6255355957172
 20
-256.4822707469041
 30
0.0
 10
108.2350113040767
 20
-256.8727950385273
 30
0.0
 10
107.8444870124365
 20
-257.2633193301498
 30
0.0
 10
107.2113220336803
 20
-257.2633193301357
 30
0.0
 10
106.8207977420581
 20
-256.8727950384958
 30
0.0
  0
SPLINE
  5
58
330
42
100
AcDbEntity
  8
Layer 1
 62
     1
420
 16711680
370
    50
100
AcDbSpline
210
0.0
220
0.0
230
1.0
 70
    11
 71
     3
 72
    17
 73
    13
 74
     0
 42
0.0000000001
 43
0.0000000001
 12
1.0
 22
0.0
 32
0.0
 13
1.0
 23
0.0
 33
0.0
 40
0.0
 40
0.0
 40
0.0
 40
0.0
 40
1.0
 40
1.0
 40
1.0
 40
2.0
 40
2.0
 40
2.0
 40
3.0
 40
3.0
 40
3.0
 40
4.0
 40
4.0
 40
4.0
 40
4.0
 10
98.5713233043499
 20
-265.1222694758328
 30
0.0
 10
98.18079901272702
 20
-264.7317451841923
 30
0.0
 10
98.18079901274082
 20
-264.0985802054362
 30
0.0
 10
98.57132330438134
 20
-263.7080559138136
 30
0.0
 10
98.96184759602218
 20
-263.3175316221904
 30
0.0
 10
99.59501257477831
 20
-263.3175316222052
 30
0.0
 10
99.98553686640118
 20
-263.708055913845
 30
0.0
 10
100.3760611580244
 20
-264.098580205485
 30
0.0
 10
100.3760611580099
 20
-264.731745184241
 30
0.0
 10
99.98553686636909
 20
-265.1222694758642
 30
0.0
 10
99.59501257472857
 20
-265.5127937674874
 30
0.0
 10
98.96184759597244
 20
-265.5127937674727
 30
0.0
 10
98.5713233043499
 20
-265.1222694758328
 30
0.0
  0
SPLINE
  5
59
330
42
100
AcDbEntity
  8
Layer 1
 62
     1
420
 16711680
370
    50
100
AcDbSpline
210
0.0
220
0.0
230
1.0
 70
    11
 71
     3
 72
    17
 73
    13
 74
     0
 42
0.0000000001
 43
0.0000000001
 12
1.0
 22
0.0
 32
0.0
 13
1.0
 23
0.0
 33
0.0
 40
0.0
 40
0.0
 40
0.0
 40
0.0
 40
1.0
 40
1.0
 40
1.0
 40
2.0
 40
2.0
 40
2.0
 40
3.0
 40
3.0
 40
3.0
 40
4.0
 40
4.0
 40
4.0
 40
4.0
 10
94.44658608549659
 20
-269.2470066945016
 30
0.0
 10
94.05606179387307
 20
-268.8564824028611
 30
0.0
 10
94.05606179388751
 20
-268.2233174241056
 30
0.0
 10
94.44658608552739
 20
-267.8327931324824
 30
0.0
 10
94.83711037716823
 20
-267.4422688408592
 30
0.0
 10
95.47027535592436
 20
-267.4422688408734
 30
0.0
 10
95.86079964754722
 20
-267.8327931325139
 30
0.0
 10
96.25132393916978
 20
-268.2233174241544
 30
0.0
 10
96.25132393915534
 20
-268.8564824029106
 30
0.0
 10
95.8607996475145
 20
-269.2470066945331
 30
0.0
 10
95.47027535587462
 20
-269.6375309861563
 30
0.0
 10
94.83711037711913
 20
-269.6375309861415
 30
0.0
 10
94.44658608549659
 20
-269.2470066945016
 30
0.0
  0
SPLINE
  5
5A
330
42
100
AcDbEntity
  8
Layer 1
 62
     1
420
 16711680
370
    50
100
AcDbSpline
210
0.0
220
0.0
230
1.0
 70
    11
 71
     3
 72
    17
 73
    13
 74
     0
 42
0.0000000001
 43
0.0000000001
 12
1.0
 22
0.0
 32
0.0
 13
1.0
 23
0.0
 33
0.0
 40
0.0
 40
0.0
 40
0.0
 40
0.0
 40
1.0
 40
1.0
 40
1.0
 40
2.0
 40
2.0
 40
2.0
 40
3.0
 40
3.0
 40
3.0
 40
4.0
 40
4.0
 40
4.0
 40
4.0
 10
93.54858905688602
 20
-256.2085255142652
 30
0.0
 10
93.33723883322466
 20
-256.7187700905891
 30
0.0
 10
92.75227066864107
 20
-256.9610718378927
 30
0.0
 10
92.24202609231843
 20
-256.7497216142327
 30
0.0
 10
91.7317815159945
 20
-256.5383713905713
 30
0.0
 10
91.4894797686899
 20
-255.9534032259884
 30
0.0
 10
91.70082999235127
 20
-255.4431586496638
 30
0.0
 10
91.91218021601168
 20
-254.9329140733405
 30
0.0
 10
92.49714838059525
 20
-254.6906123260369
 30
0.0
 10
93.0073929569195
 20
-254.9019625496969
 30
0.0
 10
93.51763753324279
 20
-255.1133127733577
 30
0.0
 10
93.75993928054642
 20
-255.6982809379413
 30
0.0
 10
93.54858905688602
 20
-256.2085255142652
 30
0.0
  0
SPLINE
  5
5B
330
42
100
AcDbEntity
  8
Layer 1
 62
     1
420
 16711680
370
    50
100
AcDbSpline
210
0.0
220
0.0
230
1.0
 70
    11
 71
     3
 72
    17
 73
    13
 74
     0
 42
0.0000000001
 43
0.0000000001
 12
1.0
 22
0.0
 32
0.0
 13
1.0
 23
0.0
 33
0.0
 40
0.0
 40
0.0
 40
0.0
 40
0.0
 40
1.0
 40
1.0
 40
1.0
 40
2.0
 40
2.0
 40
2.0
 40
3.0
 40
3.0
 40
3.0
 40
4.0
 40
4.0
 40
4.0
 40
4.0
 10
115.1055046161074
 20
-265.1376923026764
 30
0.0
 10
114.894154392447
 20
-265.6479368790004
 30
0.0
 10
114.3091862278634
 20
-265.8902386263047
 30
0.0
 10
113.7989416515408
 20
-265.678888402644
 30
0.0
 10
113.2886970752165
 20
-265.4675381789839
 30
0.0
 10
113.0463953279122
 20
-264.8825700143996
 30
0.0
 10
113.2577455515733
 20
-264.3723254380757
 30
0.0
 10
113.469095775234
 20
-263.8620808617524
 30
0.0
 10
114.0540639398176
 20
-263.6197791144481
 30
0.0
 10
114.5643085161415
 20
-263.8311293381095
 30
0.0
 10
115.0745530924651
 20
-264.0424795617696
 30
0.0
 10
115.3168548397681
 20
-264.6274477263538
 30
0.0
 10
115.1055046161074
 20
-265.1376923026764
 30
0.0
  0
SPLINE
  5
5C
330
42
100
AcDbEntity
  8
Layer 1
 62
     1
420
 16711680
370
    50
100
AcDbSpline
210
0.0
220
0.0
230
1.0
 70
    11
 71
     3
 72
    17
 73
    13
 74
     0
 42
0.0000000001
 43
0.0000000001
 12
1.0
 22
0.0
 32
0.0
 13
1.0
 23
0.0
 33
0.0
 40
0.0
 40
0.0
 40
0.0
 40
0.0
 40
1.0
 40
1.0
 40
1.0
 40
2.0
 40
2.0
 40
2.0
 40
3.0
 40
3.0
 40
3.0
 40
4.0
 40
4.0
 40
4.0
 40
4.0
 10
107.4850672661357
 20
-250.4358472288266
 30
0.0
 10
106.9748226898115
 20
-250.2244970051653
 30
0.0
 10
106.7325209425072
 20
-249.639528840583
 30
0.0
 10
106.9438711661676
 20
-249.1292842642597
 30
0.0
 10
107.155221389829
 20
-248.6190396879358
 30
0.0
 10
107.7401895544125
 20
-248.3767379406322
 30
0.0
 10
108.2504341307365
 20
-248.5880881642922
 30
0.0
 10
108.7606787070594
 20
-248.7994383879523
 30
0.0
 10
109.0029804543631
 20
-249.3844065525365
 30
0.0
 10
108.7916302307023
 20
-249.8946511288605
 30
0.0
 10
108.5802800070413
 20
-250.4048957051837
 30
0.0
 10
107.9953118424584
 20
-250.6471974524867
 30
0.0
 10
107.4850672661357
 20
-250.4358472288266
 30
0.0
  0
SPLINE
  5
5D
330
42
100
AcDbEntity
  8
Layer 1
 62
     1
420
 16711680
370
    50
100
AcDbSpline
210
0.0
220
0.0
230
1.0
 70
    11
 71
     3
 72
    17
 73
    13
 74
     0
 42
0.0000000001
 43
0.0000000001
 12
1.0
 22
0.0
 32
0.0
 13
1.0
 23
0.0
 33
0.0
 40
0.0
 40
0.0
 40
0.0
 40
0.0
 40
1.0
 40
1.0
 40
1.0
 40
2.0
 40
2.0
 40
2.0
 40
3.0
 40
3.0
 40
3.0
 40
4.0
 40
4.0
 40
4.0
 40
4.0
 10
98.55590047772411
 20
-271.9927627880487
 30
0.0
 10
98.04565590139953
 20
-271.7814125643879
 30
0.0
 10
97.80335415409495
 20
-271.196444399805
 30
0.0
 10
98.01470437775632
 20
-270.6861998234817
 30
0.0
 10
98.2260546014167
 20
-270.1759552471578
 30
0.0
 10
98.81102276600029
 20
-269.9336534998541
 30
0.0
 10
99.32126734232455
 20
-270.1450037235143
 30
0.0
 10
99.8315119186472
 20
-270.356353947175
 30
0.0
 10
100.0738136659508
 20
-270.9413221117586
 30
0.0
 10
99.86246344229042
 20
-271.4515666880825
 30
0.0
 10
99.65111321862969
 20
-271.9618112644064
 30
0.0
 10
99.06614505404612
 20
-272.2041130117087
 30
0.0
 10
98.55590047772411
 20
-271.9927627880487
 30
0.0
  0
SPLINE
  5
5E
330
42
100
AcDbEntity
  8
Layer 1
 62
     1
420
 16711680
370
    50
100
AcDbSpline
210
0.0
220
0.0
230
1.0
 70
    11
 71
     3
 72
    17
 73
    13
 74
     0
 42
0.0000000001
 43
0.0000000001
 12
1.0
 22
0.0
 32
0.0
 13
1.0
 23
0.0
 33
0.0
 40
0.0
 40
0.0
 40
0.0
 40
0.0
 40
1.0
 40
1.0
 40
1.0
 40
2.0
 40
2.0
 40
2.0
 40
3.0
 40
3.0
 40
3.0
 40
4.0
 40
4.0
 40
4.0
 40
4.0
 10
99.32126734276667
 20
-250.4358472286431
 30
0.0
 10
98.81102276643313
 20
-250.6471974522814
 30
0.0
 10
98.2260546018598
 20
-250.4048957049508
 30
0.0
 10
98.0147043782225
 20
-249.8946511286185
 30
0.0
 10
97.80335415458488
 20
-249.384406552285
 30
0.0
 10
98.04565590191481
 20
-248.7994383877123
 30
0.0
 10
98.55590047824805
 20
-248.5880881640741
 30
0.0
 10
99.06614505458097
 20
-248.3767379404371
 30
0.0
 10
99.65111321915428
 20
-248.6190396877676
 30
0.0
 10
99.8624634427919
 20
-249.1292842641006
 30
0.0
 10
100.0738136664298
 20
-249.6395288404335
 30
0.0
 10
99.83151191909863
 20
-250.2244970050055
 30
0.0
 10
99.32126734276667
 20
-250.4358472286431
 30
0.0
  0
SPLINE
  5
5F
330
42
100
AcDbEntity
  8
Layer 1
 62
     1
420
 16711680
370
    50
100
AcDbSpline
210
0.0
220
0.0
230
1.0
 70
    11
 71
     3
 72
    17
 73
    13
 74
     0
 42
0.0000000001
 43
0.0000000001
 12
1.0
 22
0.0
 32
0.0
 13
1.0
 23
0.0
 33
0.0
 40
0.0
 40
0.0
 40
0.0
 40
0.0
 40
1.0
 40
1.0
 40
1.0
 40
2.0
 40
2.0
 40
2.0
 40
3.0
 40
3.0
 40
3.0
 40
4.0
 40
4.0
 40
4.0
 40
4.0
 10
108.2504341302106
 20
-271.9927627882662
 30
0.0
 10
107.7401895538764
 20
-272.2041130119038
 30
0.0
 10
107.1552213893044
 20
-271.9618112645745
 30
0.0
 10
106.9438711656674
 20
-271.4515666882416
 30
0.0
 10
106.7325209420288
 20
-270.9413221119074
 30
0.0
 10
106.9748226893594
 20
-270.3563539473348
 30
0.0
 10
107.4850672656929
 20
-270.1450037236978
 30
0.0
 10
107.9953118420249
 20
-269.9336535000595
 30
0.0
 10
108.5802800065976
 20
-270.17595524739
 30
0.0
 10
108.7916302302355
 20
-270.686199823723
 30
0.0
 10
109.0029804538738
 20
-271.1964444000559
 30
0.0
 10
108.7606787065429
 20
-271.7814125646286
 30
0.0
 10
108.2504341302106
 20
-271.9927627882662
 30
0.0
  0
SPLINE
  5
60
330
42
100
AcDbEntity
  8
Layer 1
 62
     1
420
 16711680
370
    50
100
AcDbSpline
210
0.0
220
0.0
230
1.0
 70
    11
 71
     3
 72
    17
 73
    13
 74
     0
 42
0.0000000001
 43
0.0000000001
 12
1.0
 22
0.0
 32
0.0
 13
1.0
 23
0.0
 33
0.0
 40
0.0
 40
0.0
 40
0.0
 40
0.0
 40
1.0
 40
1.0
 40
1.0
 40
2.0
 40
2.0
 40
2.0
 40
3.0
 40
3.0
 40
3.0
 40
4.0
 40
4.0
 40
4.0
 40
4.0
 10
113.2577455517565
 20
-256.208525514708
 30
0.0
 10
113.0463953281192
 20
-255.698280938375
 30
0.0
 10
113.2886970754491
 20
-255.1133127738011
 30
0.0
 10
113.7989416517814
 20
-254.9019625501641
 30
0.0
 10
114.3091862281146
 20
-254.6906123265258
 30
0.0
 10
114.8941543926879
 20
-254.9329140738571
 30
0.0
 10
115.1055046163252
 20
-255.4431586501893
 30
0.0
 10
115.3168548399635
 20
-255.9534032265223
 30
0.0
 10
115.0745530926333
 20
-256.5383713910949
 30
0.0
 10
114.5643085162991
 20
-256.7497216147332
 30
0.0
 10
114.0540639399661
 20
-256.9610718383702
 30
0.0
 10
113.4690957753941
 20
-256.7187700910396
 30
0.0
 10
113.2577455517565
 20
-256.208525514708
 30
0.0
  0
SPLINE
  5
61
330
42
100
AcDbEntity
  8
Layer 1
 62
     1
420
 16711680
370
    50
100
AcDbSpline
210
0.0
220
0.0
230
1.0
 70
    11
 71
     3
 72
    17
 73
    13
 74
     0
 42
0.0000000001
 43
0.0000000001
 12
1.0
 22
0.0
 32
0.0
 13
1.0
 23
0.0
 33
0.0
 40
0.0
 40
0.0
 40
0.0
 40
0.0
 40
1.0
 40
1.0
 40
1.0
 40
2.0
 40
2.0
 40
2.0
 40
3.0
 40
3.0
 40
3.0
 40
4.0
 40
4.0
 40
4.0
 40
4.0
 10
91.70082999213406
 20
-265.1376923021515
 30
0.0
 10
91.4894797684958
 20
-264.6274477258186
 30
0.0
 10
91.73178151582573
 20
-264.042479561246
 30
0.0
 10
92.24202609215833
 20
-263.8311293376083
 30
0.0
 10
92.75227066849187
 20
-263.6197791139695
 30
0.0
 10
93.33723883306519
 20
-263.8620808613
 30
0.0
 10
93.54858905670217
 20
-264.3723254376342
 30
0.0
 10
93.7599392803401
 20
-264.8825700139658
 30
0.0
 10
93.51763753300953
 20
-265.4675381785385
 30
0.0
 10
93.0073929566763
 20
-265.6788884021768
 30
0.0
 10
92.49714838034339
 20
-265.8902386258151
 30
0.0
 10
91.91218021577136
 20
-265.6479368784838
 30
0.0
 10
91.70082999213406
 20
-265.1376923021515
 30
0.0
  0
SPLINE
  5
62
330
42
100
AcDbEntity
  8
Layer 1
 62
     1
420
 16711680
370
    50
100
AcDbSpline
210
0.0
220
0.0
230
1.0
 70
    11
 71
     3
 72
    17
 73
    13
 74
     0
 42
0.0000000001
 43
0.0000000001
 12
1.0
 22
0.0
 32
0.0
 13
1.0
 23
0.0
 33
0.0
 40
0.0
 40
0.0
 40
0.0
 40
0.0
 40
1.0
 40
1.0
 40
1.0
 40
2.0
 40
2.0
 40
2.0
 40
3.0
 40
3.0
 40
3.0
 40
4.0
 40
4.0
 40
4.0
 40
4.0
 10
121.9029449027932
 20
-260.2904254770008
 30
0.0
 10
121.9029449027682
 20
-260.842710226663
 30
0.0
 10
121.4552296526601
 20
-261.2904254767313
 30
0.0
 10
120.9029449029985
 20
-261.2904254767063
 30
0.0
 10
120.350660153337
 20
-261.2904254766813
 30
0.0
 10
119.9029449032687
 20
-260.8427102265738
 30
0.0
 10
119.9029449032937
 20
-260.2904254769116
 30
0.0
 10
119.9029449033184
 20
-259.7381407272494
 30
0.0
 10
120.3506601534268
 20
-259.2904254771817
 30
0.0
 10
120.9029449030884
 20
-259.2904254772061
 30
0.0
 10
121.4552296527499
 20
-259.2904254772312
 30
0.0
 10
121.9029449028179
 20
-259.7381407273393
 30
0.0
 10
121.9029449027932
 20
-260.2904254770008
 30
0.0
  0
SPLINE
  5
63
330
42
100
AcDbEntity
  8
Layer 1
 62
     1
420
 16711680
370
    50
100
AcDbSpline
210
0.0
220
0.0
230
1.0
 70
    11
 71
     3
 72
    17
 73
    13
 74
     0
 42
0.0000000001
 43
0.0000000001
 12
1.0
 22
0.0
 32
0.0
 13
1.0
 23
0.0
 33
0.0
 40
0.0
 40
0.0
 40
0.0
 40
0.0
 40
1.0
 40
1.0
 40
1.0
 40
2.0
 40
2.0
 40
2.0
 40
3.0
 40
3.0
 40
3.0
 40
4.0
 40
4.0
 40
4.0
 40
4.0
 10
91.73606237755756
 20
-271.9575302277288
 30
0.0
 10
92.12658666918043
 20
-272.34805451937
 30
0.0
 10
92.12658666916695
 20
-272.9812194981261
 30
0.0
 10
91.73606237752611
 20
-273.3717437897493
 30
0.0
 10
91.34553808588528
 20
-273.7622680813718
 30
0.0
 10
90.71237310712915
 20
-273.7622680813577
 30
0.0
 10
90.32184881550563
 20
-273.3717437897172
 30
0.0
 10
89.9313245238834
 20
-272.9812194980773
 30
0.0
 10
89.93132452389753
 20
-272.3480545193212
 30
0.0
 10
90.32184881553836
 20
-271.957530227698
 30
0.0
 10
90.7123731071792
 20
-271.5670059360748
 30
0.0
 10
91.34553808593469
 20
-271.5670059360889
 30
0.0
 10
91.73606237755756
 20
-271.9575302277288
 30
0.0
  0
SPLINE
  5
64
330
42
100
AcDbEntity
  8
Layer 1
 62
     1
420
 16711680
370
    50
100
AcDbSpline
210
0.0
220
0.0
230
1.0
 70
    11
 71
     3
 72
    17
 73
    13
 74
     0
 42
0.0000000001
 43
0.0000000001
 12
1.0
 22
0.0
 32
0.0
 13
1.0
 23
0.0
 33
0.0
 40
0.0
 40
0.0
 40
0.0
 40
0.0
 40
1.0
 40
1.0
 40
1.0
 40
2.0
 40
2.0
 40
2.0
 40
3.0
 40
3.0
 40
3.0
 40
4.0
 40
4.0
 40
4.0
 40
4.0
 10
116.4844854437738
 20
-247.2091071626237
 30
0.0
 10
116.8750097353973
 20
-247.5996314542649
 30
0.0
 10
116.8750097353832
 20
-248.2327964330197
 30
0.0
 10
116.484485443743
 20
-248.6233207246429
 30
0.0
 10
116.0939611521025
 20
-249.0138450162667
 30
0.0
 10
115.460796173347
 20
-249.013845016252
 30
0.0
 10
115.0702718817231
 20
-248.6233207246115
 30
0.0
 10
114.6797475901009
 20
-248.2327964329709
 30
0.0
 10
114.6797475901144
 20
-247.5996314542148
 30
0.0
 10
115.0702718817552
 20
-247.2091071625916
 30
0.0
 10
115.4607961733954
 20
-246.8185828709684
 30
0.0
 10
116.0939611521515
 20
-246.8185828709832
 30
0.0
 10
116.4844854437738
 20
-247.2091071626237
 30
0.0
  0
SPLINE
  5
65
330
42
100
AcDbEntity
  8
Layer 1
 62
     1
420
 16711680
370
    50
100
AcDbSpline
210
0.0
220
0.0
230
1.0
 70
    11
 71
     3
 72
    17
 73
    13
 74
     0
 42
0.0000000001
 43
0.0000000001
 12
1.0
 22
0.0
 32
0.0
 13
1.0
 23
0.0
 33
0.0
 40
0.0
 40
0.0
 40
0.0
 40
0.0
 40
1.0
 40
1.0
 40
1.0
 40
2.0
 40
2.0
 40
2.0
 40
3.0
 40
3.0
 40
3.0
 40
4.0
 40
4.0
 40
4.0
 40
4.0
 10
91.73606237808151
 20
-248.6233207240872
 30
0.0
 10
91.34553808644098
 20
-249.0138450157104
 30
0.0
 10
90.71237310768615
 20
-249.0138450156969
 30
0.0
 10
90.32184881606231
 20
-248.6233207240564
 30
0.0
 10
89.93132452443945
 20
-248.2327964324152
 30
0.0
 10
89.93132452445292
 20
-247.5996314536591
 30
0.0
 10
90.3218488160944
 20
-247.2091071620359
 30
0.0
 10
90.71237310773459
 20
-246.8185828704133
 30
0.0
 10
91.34553808649072
 20
-246.8185828704275
 30
0.0
 10
91.73606237811423
 20
-247.209107162068
 30
0.0
 10
92.12658666973647
 20
-247.5996314537092
 30
0.0
 10
92.12658666972234
 20
-248.2327964324646
 30
0.0
 10
91.73606237808151
 20
-248.6233207240872
 30
0.0
  0
SPLINE
  5
66
330
42
100
AcDbEntity
  8
Layer 1
 62
     1
420
 16711680
370
    50
100
AcDbSpline
210
0.0
220
0.0
230
1.0
 70
    11
 71
     3
 72
    17
 73
    13
 74
     0
 42
0.0000000001
 43
0.0000000001
 12
1.0
 22
0.0
 32
0.0
 13
1.0
 23
0.0
 33
0.0
 40
0.0
 40
0.0
 40
0.0
 40
0.0
 40
1.0
 40
1.0
 40
1.0
 40
2.0
 40
2.0
 40
2.0
 40
3.0
 40
3.0
 40
3.0
 40
4.0
 40
4.0
 40
4.0
 40
4.0
 10
116.4844854431882
 20
-273.3717437903043
 30
0.0
 10
116.0939611515467
 20
-273.7622680819275
 30
0.0
 10
115.4607961727912
 20
-273.762268081914
 30
0.0
 10
115.0702718811684
 20
-273.3717437902729
 30
0.0
 10
114.6797475895455
 20
-272.981219498633
 30
0.0
 10
114.6797475895596
 20
-272.3480545198769
 30
0.0
 10
115.0702718812005
 20
-271.9575302282531
 30
0.0
 10
115.4607961728407
 20
-271.5670059366305
 30
0.0
 10
116.0939611515968
 20
-271.5670059366453
 30
0.0
 10
116.4844854432197
 20
-271.9575302282852
 30
0.0
 10
116.8750097348419
 20
-272.3480545199257
 30
0.0
 10
116.8750097348278
 20
-272.9812194986818
 30
0.0
 10
116.4844854431882
 20
-273.3717437903043
 30
0.0
  0
INSERT
  5
68
330
42
100
AcDbEntity
  8
Layer 1
100
AcDbBlockReference
  2
block 3
 10
0.0
 20
0.0
 30
0.0
  0
ENDBLK
  5
45
330
42
100
AcDbEntity
  8
0
100
AcDbBlockEnd
  0
BLOCK
  5
69
330
67
100
AcDbEntity
  8
0
100
AcDbBlockBegin
  2
block 3
 70
     0
 10
0.0
 20
0.0
 30
0.0
  3
block 3
  1

  0
SPLINE
  5
6B
330
67
100
AcDbEntity
  8
Layer 1
 62
     1
420
 16711680
370
    50
100
AcDbSpline
210
0.0
220
0.0
230
1.0
 70
    11
 71
     3
 72
    17
 73
    13
 74
     0
 42
0.0000000001
 43
0.0000000001
 12
1.0
 22
0.0
 32
0.0
 13
1.0
 23
0.0
 33
0.0
 40
0.0
 40
0.0
 40
0.0
 40
0.0
 40
1.0
 40
1.0
 40
1.0
 40
2.0
 40
2.0
 40
2.0
 40
3.0
 40
3.0
 40
3.0
 40
4.0
 40
4.0
 40
4.0
 40
4.0
 10
97.0889755374442
 20
-275.5342324520203
 30
0.0
 10
97.59922011376749
 20
-275.7455826756817
 30
0.0
 10
97.84152186107175
 20
-276.3305508402647
 30
0.0
 10
97.63017163741135
 20
-276.8407954165886
 30
0.0
 10
97.41882141375063
 20
-277.3510399929112
 30
0.0
 10
96.83385324916641
 20
-277.5933417402161
 30
0.0
 10
96.32360867284312
 20
-277.3819915165548
 30
0.0
 10
95.81336409651983
 20
-277.1706412928947
 30
0.0
 10
95.57106234921524
 20
-276.5856731283111
 30
0.0
 10
95.78241257287597
 20
-276.0754285519878
 30
0.0
 10
95.99376279653636
 20
-275.5651839756639
 30
0.0
 10
96.57873096112058
 20
-275.3228822283602
 30
0.0
 10
97.0889755374442
 20
-275.5342324520203
 30
0.0
  0
SPLINE
  5
6C
330
67
100
AcDbEntity
  8
Layer 1
 62
     1
420
 16711680
370
    50
100
AcDbSpline
210
0.0
220
0.0
230
1.0
 70
    11
 71
     3
 72
    17
 73
    13
 74
     0
 42
0.0000000001
 43
0.0000000001
 12
1.0
 22
0.0
 32
0.0
 13
1.0
 23
0.0
 33
0.0
 40
0.0
 40
0.0
 40
0.0
 40
0.0
 40
1.0
 40
1.0
 40
1.0
 40
2.0
 40
2.0
 40
2.0
 40
3.0
 40
3.0
 40
3.0
 40
4.0
 40
4.0
 40
4.0
 40
4.0
 10
110.4827255864369
 20
-243.1988594357861
 30
0.0
 10
110.9929701627612
 20
-243.4102096594468
 30
0.0
 10
111.2352719100648
 20
-243.9951778240304
 30
0.0
 10
111.0239216864041
 20
-244.5054224003537
 30
0.0
 10
110.8125714627437
 20
-245.0156669766783
 30
0.0
 10
110.2276032981595
 20
-245.2579687239819
 30
0.0
 10
109.7173587218362
 20
-245.0466185003205
 30
0.0
 10
109.2071141455126
 20
-244.8352682766605
 30
0.0
 10
108.9648123982083
 20
-244.2503001120769
 30
0.0
 10
109.1761626218693
 20
-243.740055535753
 30
0.0
 10
109.3875128455301
 20
-243.2298109594297
 30
0.0
 10
109.9724810101136
 20
-242.987509212126
 30
0.0
 10
110.4827255864369
 20
-243.1988594357861
 30
0.0
  0
SPLINE
  5
6D
330
67
100
AcDbEntity
  8
Layer 1
 62
     1
420
 16711680
370
    50
100
AcDbSpline
210
0.0
220
0.0
230
1.0
 70
    11
 71
     3
 72
    17
 73
    13
 74
     0
 42
0.0000000001
 43
0.0000000001
 12
1.0
 22
0.0
 32
0.0
 13
1.0
 23
0.0
 33
0.0
 40
0.0
 40
0.0
 40
0.0
 40
0.0
 40
1.0
 40
1.0
 40
1.0
 40
2.0
 40
2.0
 40
2.0
 40
3.0
 40
3.0
 40
3.0
 40
4.0
 40
4.0
 40
4.0
 40
4.0
 10
88.15936015379029
 20
-253.9762338839745
 30
0.0
 10
87.94800993012988
 20
-254.4864784602984
 30
0.0
 10
87.3630417655463
 20
-254.728780207602
 30
0.0
 10
86.8527971892227
 20
-254.5174299839419
 30
0.0
 10
86.34255261289941
 20
-254.3060797602812
 30
0.0
 10
86.10025086559514
 20
-253.7211115956976
 30
0.0
 10
86.31160108925619
 20
-253.2108670193737
 30
0.0
 10
86.5229513129169
 20
-252.7006224430504
 30
0.0
 10
87.10791947750049
 20
-252.4583206957462
 30
0.0
 10
87.61816405382442
 20
-252.6696709194075
 30
0.0
 10
88.1284086301477
 20
-252.8810211430676
 30
0.0
 10
88.370710377451
 20
-253.4659893076512
 30
0.0
 10
88.15936015379029
 20
-253.9762338839745
 30
0.0
  0
SPLINE
  5
6E
330
67
100
AcDbEntity
  8
Layer 1
 62
     1
420
 16711680
370
    50
100
AcDbSpline
210
0.0
220
0.0
230
1.0
 70
    11
 71
     3
 72
    17
 73
    13
 74
     0
 42
0.0000000001
 43
0.0000000001
 12
1.0
 22
0.0
 32
0.0
 13
1.0
 23
0.0
 33
0.0
 40
0.0
 40
0.0
 40
0.0
 40
0.0
 40
1.0
 40
1.0
 40
1.0
 40
2.0
 40
2.0
 40
2.0
 40
3.0
 40
3.0
 40
3.0
 40
4.0
 40
4.0
 40
4.0
 40
4.0
 10
120.4947331700251
 20
-267.3699839329672
 30
0.0
 10
120.2833829463648
 20
-267.8802285092911
 30
0.0
 10
119.6984147817805
 20
-268.1225302565954
 30
0.0
 10
119.1881702054576
 20
-267.9111800329347
 30
0.0
 10
118.6779256291343
 20
-267.6998298092746
 30
0.0
 10
118.43562388183
 20
-267.1148616446903
 30
0.0
 10
118.646974105491
 20
-266.6046170683665
 30
0.0
 10
118.8583243291514
 20
-266.0943724920431
 30
0.0
 10
119.443292493735
 20
-265.8520707447389
 30
0.0
 10
119.9535370700586
 20
-266.0634209683996
 30
0.0
 10
120.4637816463819
 20
-266.2747711920603
 30
0.0
 10
120.7060833936855
 20
-266.8597393566445
 30
0.0
 10
120.4947331700251
 20
-267.3699839329672
 30
0.0
  0
SPLINE
  5
6F
330
67
100
AcDbEntity
  8
Layer 1
 62
     1
420
 16711680
370
    50
100
AcDbSpline
210
0.0
220
0.0
230
1.0
 70
    11
 71
     3
 72
    17
 73
    13
 74
     0
 42
0.0000000001
 43
0.0000000001
 12
1.0
 22
0.0
 32
0.0
 13
1.0
 23
0.0
 33
0.0
 40
0.0
 40
0.0
 40
0.0
 40
0.0
 40
1.0
 40
1.0
 40
1.0
 40
2.0
 40
2.0
 40
2.0
 40
3.0
 40
3.0
 40
3.0
 40
4.0
 40
4.0
 40
4.0
 40
4.0
 10
88.15936015350762
 20
-266.6046170676824
 30
0.0
 10
88.37071037714492
 20
-267.1148616440146
 30
0.0
 10
88.12840862981498
 20
-267.6998298085886
 30
0.0
 10
87.61816405348208
 20
-267.9111800322262
 30
0.0
 10
87.10791947714884
 20
-268.1225302558639
 30
0.0
 10
86.52295131257617
 20
-267.8802285085333
 30
0.0
 10
86.31160108893758
 20
-267.3699839321997
 30
0.0
 10
86.10025086530028
 20
-266.8597393558681
 30
0.0
 10
86.34255261263085
 20
-266.2747711912941
 30
0.0
 10
86.85279718896376
 20
-266.0634209676565
 30
0.0
 10
87.363041765297
 20
-265.8520707440189
 30
0.0
 10
87.94800992986903
 20
-266.0943724913495
 30
0.0
 10
88.15936015350762
 20
-266.6046170676824
 30
0.0
  0
SPLINE
  5
70
330
67
100
AcDbEntity
  8
Layer 1
 62
     1
420
 16711680
370
    50
100
AcDbSpline
210
0.0
220
0.0
230
1.0
 70
    11
 71
     3
 72
    17
 73
    13
 74
     0
 42
0.0000000001
 43
0.0000000001
 12
1.0
 22
0.0
 32
0.0
 13
1.0
 23
0.0
 33
0.0
 40
0.0
 40
0.0
 40
0.0
 40
0.0
 40
1.0
 40
1.0
 40
1.0
 40
2.0
 40
2.0
 40
2.0
 40
3.0
 40
3.0
 40
3.0
 40
4.0
 40
4.0
 40
4.0
 40
4.0
 10
120.4947331703425
 20
-253.2108670201412
 30
0.0
 10
120.7060833939804
 20
-253.7211115964741
 30
0.0
 10
120.4637816466505
 20
-254.3060797610468
 30
0.0
 10
119.9535370703176
 20
-254.517429984685
 30
0.0
 10
119.443292493985
 20
-254.7287802083226
 30
0.0
 10
118.8583243294123
 20
-254.4864784609927
 30
0.0
 10
118.6469741057737
 20
-253.9762338846598
 30
0.0
 10
118.4356238821367
 20
-253.4659893083256
 30
0.0
 10
118.6779256294663
 20
-252.8810211437529
 30
0.0
 10
119.1881702057999
 20
-252.6696709201159
 30
0.0
 10
119.6984147821322
 20
-252.4583206964777
 30
0.0
 10
120.2833829467048
 20
-252.7006224438083
 30
0.0
 10
120.4947331703425
 20
-253.2108670201412
 30
0.0
  0
SPLINE
  5
71
330
67
100
AcDbEntity
  8
Layer 1
 62
     1
420
 16711680
370
    50
100
AcDbSpline
210
0.0
220
0.0
230
1.0
 70
    11
 71
     3
 72
    17
 73
    13
 74
     0
 42
0.0000000001
 43
0.0000000001
 12
1.0
 22
0.0
 32
0.0
 13
1.0
 23
0.0
 33
0.0
 40
0.0
 40
0.0
 40
0.0
 40
0.0
 40
1.0
 40
1.0
 40
1.0
 40
2.0
 40
2.0
 40
2.0
 40
3.0
 40
3.0
 40
3.0
 40
4.0
 40
4.0
 40
4.0
 40
4.0
 10
97.08897553812953
 20
-245.0466185000369
 30
0.0
 10
96.57873096179598
 20
-245.2579687236752
 30
0.0
 10
95.99376279722395
 20
-245.0156669763459
 30
0.0
 10
95.78241257358536
 20
-244.505422400013
 30
0.0
 10
95.57106234994839
 20
-243.9951778236794
 30
0.0
 10
95.81336409727831
 20
-243.4102096591061
 30
0.0
 10
96.32360867361155
 20
-243.1988594354679
 30
0.0
 10
96.83385324994447
 20
-242.9875092118309
 30
0.0
 10
97.41882141451714
 20
-243.2298109591608
 30
0.0
 10
97.6301716381554
 20
-243.7400555354943
 30
0.0
 10
97.8415218617927
 20
-244.2503001118273
 30
0.0
 10
97.59922011446277
 20
-244.8352682763999
 30
0.0
 10
97.08897553812953
 20
-245.0466185000369
 30
0.0
  0
SPLINE
  5
72
330
67
100
AcDbEntity
  8
Layer 1
 62
     1
420
 16711680
370
    50
100
AcDbSpline
210
0.0
220
0.0
230
1.0
 70
    11
 71
     3
 72
    17
 73
    13
 74
     0
 42
0.0000000001
 43
0.0000000001
 12
1.0
 22
0.0
 32
0.0
 13
1.0
 23
0.0
 33
0.0
 40
0.0
 40
0.0
 40
0.0
 40
0.0
 40
1.0
 40
1.0
 40
1.0
 40
2.0
 40
2.0
 40
2.0
 40
3.0
 40
3.0
 40
3.0
 40
4.0
 40
4.0
 40
4.0
 40
4.0
 10
110.4827255856717
 20
-277.381991516873
 30
0.0
 10
109.9724810093375
 20
-277.5933417405113
 30
0.0
 10
109.3875128447648
 20
-277.3510399931807
 30
0.0
 10
109.1761626211272
 20
-276.8407954168485
 30
0.0
 10
108.9648123974893
 20
-276.3305508405156
 30
0.0
 10
109.2071141448198
 20
-275.7455826759422
 30
0.0
 10
109.7173587211534
 20
-275.534232452304
 30
0.0
 10
110.2276032974854
 20
-275.322882228667
 30
0.0
 10
110.812571462058
 20
-275.5651839759976
 30
0.0
 10
111.0239216856966
 20
-276.0754285523305
 30
0.0
 10
111.2352719093336
 20
-276.5856731286627
 30
0.0
 10
110.9929701620033
 20
-277.1706412932354
 30
0.0
 10
110.4827255856717
 20
-277.381991516873
 30
0.0
  0
ENDBLK
  5
6A
330
67
100
AcDbEntity
  8
0
100
AcDbBlockEnd
  0
BLOCK
  5
ED
330
EB
100
AcDbEntity
  8
0
100
AcDbBlockBegin
  2
block 4
 70
     0
 10
0.0
 20
0.0
 30
0.0
  3
block 4
  1

  0
INSERT
  5
F0
330
EB
100
AcDbEntity
  8
Layer 1
100
AcDbBlockReference
  2
block 5
 10
0.0
 20
0.0
 30
0.0
  0
INSERT
  5
10C
330
EB
100
AcDbEntity
  8
Layer 1
100
AcDbBlockReference
  2
block 6
 10
0.0
 20
0.0
 30
0.0
  0
INSERT
  5
128
330
EB
100
AcDbEntity
  8
Layer 1
100
AcDbBlockReference
  2
block 7
 10
0.0
 20
0.0
 30
0.0
  0
ENDBLK
  5
EE
330
EB
100
AcDbEntity
  8
0
100
AcDbBlockEnd
  0
BLOCK
  5
F1
330
EF
100
AcDbEntity
  8
0
100
AcDbBlockBegin
  2
block 5
 70
     0
 10
0.0
 20
0.0
 30
0.0
  3
block 5
  1

  0
SPLINE
  5
F3
330
EF
100
AcDbEntity
  8
Layer 1
 62
     7
420
 16777215
370
    50
100
AcDbSpline
210
0.0
220
0.0
230
1.0
 70
    11
 71
     3
 72
    29
 73
    25
 74
     0
 42
0.0000000001
 43
0.0000000001
 12
1.0
 22
0.0
 32
0.0
 13
1.0
 23
0.0
 33
0.0
 40
0.0
 40
0.0
 40
0.0
 40
0.0
 40
1.0
 40
1.0
 40
1.0
 40
2.0
 40
2.0
 40
2.0
 40
3.0
 40
3.0
 40
3.0
 40
4.0
 40
4.0
 40
4.0
 40
5.0
 40
5.0
 40
5.0
 40
6.0
 40
6.0
 40
6.0
 40
7.0
 40
7.0
 40
7.0
 40
8.0
 40
8.0
 40
8.0
 40
8.0
 10
380.2130932998497
 20
-140.7437654819411
 30
0.0
 10
380.2130932998497
 20
-140.7437654819411
 30
0.0
 10
380.2130933009951
 20
-115.2255467826608
 30
0.0
 10
380.2130933009951
 20
-115.2255467826608
 30
0.0
 10
380.2130933010695
 20
-113.5686925335831
 30
0.0
 10
381.5562390513021
 20
-112.2255467834712
 30
0.0
 10
383.2130933003798
 20
-112.2255467835456
 30
0.0
 10
383.2130933003798
 20
-112.2255467835456
 30
0.0
 10
398.2252391003996
 20
-112.2255467842194
 30
0.0
 10
398.2252391003996
 20
-112.2255467842194
 30
0.0
 10
399.8820933494773
 20
-112.2255467842939
 30
0.0
 10
401.2252390995892
 20
-113.5686925345264
 30
0.0
 10
401.2252390995148
 20
-115.2255467836041
 30
0.0
 10
401.2252390995148
 20
-115.2255467836041
 30
0.0
 10
401.2252390983693
 20
-140.7437654828844
 30
0.0
 10
401.2252390983693
 20
-140.7437654828844
 30
0.0
 10
401.2252390982949
 20
-142.4006197319627
 30
0.0
 10
399.882093348063
 20
-143.743765482074
 30
0.0
 10
398.2252390989846
 20
-143.7437654819996
 30
0.0
 10
398.2252390989846
 20
-143.7437654819996
 30
0.0
 10
383.2130932989648
 20
-143.7437654813258
 30
0.0
 10
383.2130932989648
 20
-143.7437654813258
 30
0.0
 10
381.5562390498865
 20
-143.7437654812514
 30
0.0
 10
380.2130932997752
 20
-142.4006197310194
 30
0.0
 10
380.2130932998497
 20
-140.7437654819411
 30
0.0
  0
POLYLINE
  5
F4
330
EF
100
AcDbEntity
  8
Layer 1
 62
     7
420
 16777215
370
    50
100
AcDb2dPolyline
 66
     1
 10
0.0
 20
0.0
 30
0.0
  0
VERTEX
  5
F5
330
F4
100
AcDbEntity
  8
Layer 1
 62
     7
420
 16777215
370
    50
100
AcDbVertex
100
AcDb2dVertex
 10
395.7191687124446
 20
-170.4846626703237
 30
0.0
  0
VERTEX
  5
F6
330
F4
100
AcDbEntity
  8
Layer 1
 62
     7
420
 16777215
370
    50
100
AcDbVertex
100
AcDb2dVertex
 10
395.7191687124446
 20
-166.4846484297873
 30
0.0
  0
VERTEX
  5
F7
330
F4
100
AcDbEntity
  8
Layer 1
 62
     7
420
 16777215
370
    50
100
AcDbVertex
100
AcDb2dVertex
 10
418.2191734539985
 20
-166.4846484297873
 30
0.0
  0
VERTEX
  5
F8
330
F4
100
AcDbEntity
  8
Layer 1
 62
     7
420
 16777215
370
    50
100
AcDbVertex
100
AcDb2dVertex
 10
418.2191734539985
 20
-132.9846691222986
 30
0.0
  0
VERTEX
  5
F9
330
F4
100
AcDbEntity
  8
Layer 1
 62
     7
420
 16777215
370
    50
100
AcDbVertex
100
AcDb2dVertex
 10
422.2191661626881
 20
-132.9846691222986
 30
0.0
  0
VERTEX
  5
FA
330
F4
100
AcDbEntity
  8
Layer 1
 62
     7
420
 16777215
370
    50
100
AcDbVertex
100
AcDb2dVertex
 10
422.2191661626881
 20
-122.984676584651
 30
0.0
  0
VERTEX
  5
FB
330
F4
100
AcDbEntity
  8
Layer 1
 62
     7
420
 16777215
370
    50
100
AcDbVertex
100
AcDb2dVertex
 10
418.2191734539985
 20
-122.984676584651
 30
0.0
  0
VERTEX
  5
FC
330
F4
100
AcDbEntity
  8
Layer 1
 62
     7
420
 16777215
370
    50
100
AcDbVertex
100
AcDb2dVertex
 10
418.2191734539985
 20
-89.48465421346869
 30
0.0
  0
VERTEX
  5
FD
330
F4
100
AcDbEntity
  8
Layer 1
 62
     7
420
 16777215
370
    50
100
AcDbVertex
100
AcDb2dVertex
 10
395.7191687124446
 20
-89.48465421346869
 30
0.0
  0
VERTEX
  5
FE
330
F4
100
AcDbEntity
  8
Layer 1
 62
     7
420
 16777215
370
    50
100
AcDbVertex
100
AcDb2dVertex
 10
395.7191687124446
 20
-85.48466150477901
 30
0.0
  0
VERTEX
  5
FF
330
F4
100
AcDbEntity
  8
Layer 1
 62
     7
420
 16777215
370
    50
100
AcDbVertex
100
AcDb2dVertex
 10
385.7191546429503
 20
-85.48466150477901
 30
0.0
  0
VERTEX
  5
100
330
F4
100
AcDbEntity
  8
Layer 1
 62
     7
420
 16777215
370
    50
100
AcDbVertex
100
AcDb2dVertex
 10
385.7191546429503
 20
-89.48465421346869
 30
0.0
  0
VERTEX
  5
101
330
F4
100
AcDbEntity
  8
Layer 1
 62
     7
420
 16777215
370
    50
100
AcDbVertex
100
AcDb2dVertex
 10
363.2191714332432
 20
-89.48465421346869
 30
0.0
  0
VERTEX
  5
102
330
F4
100
AcDbEntity
  8
Layer 1
 62
     7
420
 16777215
370
    50
100
AcDbVertex
100
AcDb2dVertex
 10
363.2191714332432
 20
-122.984676584651
 30
0.0
  0
VERTEX
  5
103
330
F4
100
AcDbEntity
  8
Layer 1
 62
     7
420
 16777215
370
    50
100
AcDbVertex
100
AcDb2dVertex
 10
359.2191571927067
 20
-122.984676584651
 30
0.0
  0
VERTEX
  5
104
330
F4
100
AcDbEntity
  8
Layer 1
 62
     7
420
 16777215
370
    50
100
AcDbVertex
100
AcDb2dVertex
 10
359.2191571927067
 20
-132.9846691222986
 30
0.0
  0
VERTEX
  5
105
330
F4
100
AcDbEntity
  8
Layer 1
 62
     7
420
 16777215
370
    50
100
AcDbVertex
100
AcDb2dVertex
 10
363.2191714332432
 20
-132.9846691222986
 30
0.0
  0
VERTEX
  5
106
330
F4
100
AcDbEntity
  8
Layer 1
 62
     7
420
 16777215
370
    50
100
AcDbVertex
100
AcDb2dVertex
 10
363.2191714332432
 20
-166.4846484297873
 30
0.0
  0
VERTEX
  5
107
330
F4
100
AcDbEntity
  8
Layer 1
 62
     7
420
 16777215
370
    50
100
AcDbVertex
100
AcDb2dVertex
 10
385.7191546429503
 20
-166.4846484297873
 30
0.0
  0
VERTEX
  5
108
330
F4
100
AcDbEntity
  8
Layer 1
 62
     7
420
 16777215
370
    50
100
AcDbVertex
100
AcDb2dVertex
 10
385.7191546429503
 20
-170.4846626703237
 30
0.0
  0
VERTEX
  5
109
330
F4
100
AcDbEntity
  8
Layer 1
 62
     7
420
 16777215
370
    50
100
AcDbVertex
100
AcDb2dVertex
 10
395.7191687124446
 20
-170.4846626703237
 30
0.0
  0
SEQEND
  5
10A
330
F4
100
AcDbEntity
  8
Layer 1
 62
     7
420
 16777215
370
    50
  0
ENDBLK
  5
F2
330
EF
100
AcDbEntity
  8
0
100
AcDbBlockEnd
  0
BLOCK
  5
10D
330
10B
100
AcDbEntity
  8
0
100
AcDbBlockBegin
  2
block 6
 70
     0
 10
0.0
 20
0.0
 30
0.0
  3
block 6
  1

  0
SPLINE
  5
10F
330
10B
100
AcDbEntity
  8
Layer 1
 62
     7
420
 16777215
370
    50
100
AcDbSpline
210
0.0
220
0.0
230
1.0
 70
    11
 71
     3
 72
    17
 73
    13
 74
     0
 42
0.0000000001
 43
0.0000000001
 12
1.0
 22
0.0
 32
0.0
 13
1.0
 23
0.0
 33
0.0
 40
0.0
 40
0.0
 40
0.0
 40
0.0
 40
1.0
 40
1.0
 40
1.0
 40
2.0
 40
2.0
 40
2.0
 40
3.0
 40
3.0
 40
3.0
 40
4.0
 40
4.0
 40
4.0
 40
4.0
 10
382.2191449439377
 20
-270.9845453053662
 30
0.0
 10
382.2191449441482
 20
-266.2904410026918
 30
0.0
 10
386.0245453243762
 20
-262.4845190174746
 30
0.0
 10
390.7191710176533
 20
-262.4845190176857
 30
0.0
 10
395.4137445600122
 20
-262.4845190178962
 30
0.0
 10
399.2191449398982
 20
-266.2904410034547
 30
0.0
 10
399.2191449396877
 20
-270.9845453061285
 30
0.0
 10
399.2191449394766
 20
-275.679118967083
 30
0.0
 10
395.4137445592485
 20
-279.4850409523008
 30
0.0
 10
390.7191710168896
 20
-279.4850409520903
 30
0.0
 10
386.0245453236126
 20
-279.4850409518792
 30
0.0
 10
382.2191449437266
 20
-275.6791189663201
 30
0.0
 10
382.2191449439377
 20
-270.9845453053662
 30
0.0
  0
POLYLINE
  5
110
330
10B
100
AcDbEntity
  8
Layer 1
 62
     7
420
 16777215
370
    50
100
AcDb2dPolyline
 66
     1
 10
0.0
 20
0.0
 30
0.0
  0
VERTEX
  5
111
330
110
100
AcDbEntity
  8
Layer 1
 62
     7
420
 16777215
370
    50
100
AcDbVertex
100
AcDb2dVertex
 10
395.7191471805978
 20
-309.4847914875702
 30
0.0
  0
VERTEX
  5
112
330
110
100
AcDbEntity
  8
Layer 1
 62
     7
420
 16777215
370
    50
100
AcDbVertex
100
AcDb2dVertex
 10
418.2191519221516
 20
-309.4847914875702
 30
0.0
  0
VERTEX
  5
113
330
110
100
AcDbEntity
  8
Layer 1
 62
     7
420
 16777215
370
    50
100
AcDbVertex
100
AcDb2dVertex
 10
418.2191519221516
 20
-275.9847906482347
 30
0.0
  0
VERTEX
  5
114
330
110
100
AcDbEntity
  8
Layer 1
 62
     7
420
 16777215
370
    50
100
AcDbVertex
100
AcDb2dVertex
 10
422.2191446308413
 20
-275.9847906482347
 30
0.0
  0
VERTEX
  5
115
330
110
100
AcDbEntity
  8
Layer 1
 62
     7
420
 16777215
370
    50
100
AcDbVertex
100
AcDb2dVertex
 10
422.2191446308413
 20
-265.9847765787404
 30
0.0
  0
VERTEX
  5
116
330
110
100
AcDbEntity
  8
Layer 1
 62
     7
420
 16777215
370
    50
100
AcDbVertex
100
AcDb2dVertex
 10
418.2191519221516
 20
-265.9847765787404
 30
0.0
  0
VERTEX
  5
117
330
110
100
AcDbEntity
  8
Layer 1
 62
     7
420
 16777215
370
    50
100
AcDbVertex
100
AcDb2dVertex
 10
418.2191519221516
 20
-232.4847757394049
 30
0.0
  0
VERTEX
  5
118
330
110
100
AcDbEntity
  8
Layer 1
 62
     7
420
 16777215
370
    50
100
AcDbVertex
100
AcDb2dVertex
 10
395.7191471805978
 20
-232.4847757394049
 30
0.0
  0
VERTEX
  5
119
330
110
100
AcDbEntity
  8
Layer 1
 62
     7
420
 16777215
370
    50
100
AcDbVertex
100
AcDb2dVertex
 10
395.7191471805978
 20
-228.4847830307152
 30
0.0
  0
VERTEX
  5
11A
330
110
100
AcDbEntity
  8
Layer 1
 62
     7
420
 16777215
370
    50
100
AcDbVertex
100
AcDb2dVertex
 10
385.7191546429503
 20
-228.4847830307152
 30
0.0
  0
VERTEX
  5
11B
330
110
100
AcDbEntity
  8
Layer 1
 62
     7
420
 16777215
370
    50
100
AcDbVertex
100
AcDb2dVertex
 10
385.7191546429503
 20
-232.4847757394049
 30
0.0
  0
VERTEX
  5
11C
330
110
100
AcDbEntity
  8
Layer 1
 62
     7
420
 16777215
370
    50
100
AcDbVertex
100
AcDb2dVertex
 10
363.2191499013965
 20
-232.4847757394049
 30
0.0
  0
VERTEX
  5
11D
330
110
100
AcDbEntity
  8
Layer 1
 62
     7
420
 16777215
370
    50
100
AcDbVertex
100
AcDb2dVertex
 10
363.2191499013965
 20
-265.9847765787404
 30
0.0
  0
VERTEX
  5
11E
330
110
100
AcDbEntity
  8
Layer 1
 62
     7
420
 16777215
370
    50
100
AcDbVertex
100
AcDb2dVertex
 10
359.2191571927067
 20
-265.9847765787404
 30
0.0
  0
VERTEX
  5
11F
330
110
100
AcDbEntity
  8
Layer 1
 62
     7
420
 16777215
370
    50
100
AcDbVertex
100
AcDb2dVertex
 10
359.2191571927067
 20
-275.9847906482347
 30
0.0
  0
VERTEX
  5
120
330
110
100
AcDbEntity
  8
Layer 1
 62
     7
420
 16777215
370
    50
100
AcDbVertex
100
AcDb2dVertex
 10
363.2191499013965
 20
-275.9847906482347
 30
0.0
  0
VERTEX
  5
121
330
110
100
AcDbEntity
  8
Layer 1
 62
     7
420
 16777215
370
    50
100
AcDbVertex
100
AcDb2dVertex
 10
363.2191499013965
 20
-309.4847914875702
 30
0.0
  0
VERTEX
  5
122
330
110
100
AcDbEntity
  8
Layer 1
 62
     7
420
 16777215
370
    50
100
AcDbVertex
100
AcDb2dVertex
 10
385.7191546429503
 20
-309.4847914875702
 30
0.0
  0
VERTEX
  5
123
330
110
100
AcDbEntity
  8
Layer 1
 62
     7
420
 16777215
370
    50
100
AcDbVertex
100
AcDb2dVertex
 10
385.7191546429503
 20
-313.4847841962599
 30
0.0
  0
VERTEX
  5
124
330
110
100
AcDbEntity
  8
Layer 1
 62
     7
420
 16777215
370
    50
100
AcDbVertex
100
AcDb2dVertex
 10
395.7191471805978
 20
-313.4847841962599
 30
0.0
  0
VERTEX
  5
125
330
110
100
AcDbEntity
  8
Layer 1
 62
     7
420
 16777215
370
    50
100
AcDbVertex
100
AcDb2dVertex
 10
395.7191471805978
 20
-309.4847914875702
 30
0.0
  0
SEQEND
  5
126
330
110
100
AcDbEntity
  8
Layer 1
 62
     7
420
 16777215
370
    50
  0
ENDBLK
  5
10E
330
10B
100
AcDbEntity
  8
0
100
AcDbBlockEnd
  0
BLOCK
  5
129
330
127
100
AcDbEntity
  8
0
100
AcDbBlockBegin
  2
block 7
 70
     0
 10
0.0
 20
0.0
 30
0.0
  3
block 7
  1

  0
INSERT
  5
12C
330
127
100
AcDbEntity
  8
Layer 1
100
AcDbBlockReference
  2
block 8
 10
0.0
 20
0.0
 30
0.0
  0
INSERT
  5
141
330
127
100
AcDbEntity
  8
Layer 1
100
AcDbBlockReference
  2
block 9
 10
0.0
 20
0.0
 30
0.0
  0
ENDBLK
  5
12A
330
127
100
AcDbEntity
  8
0
100
AcDbBlockEnd
  0
BLOCK
  5
12D
330
12B
100
AcDbEntity
  8
0
100
AcDbBlockBegin
  2
block 8
 70
     0
 10
0.0
 20
0.0
 30
0.0
  3
block 8
  1

  0
SPLINE
  5
12F
330
12B
100
AcDbEntity
  8
Layer 1
 62
     7
420
 16777215
370
    50
100
AcDbSpline
210
0.0
220
0.0
230
1.0
 70
    11
 71
     3
 72
    35
 73
    31
 74
     0
 42
0.0000000001
 43
0.0000000001
 12
1.0
 22
0.0
 32
0.0
 13
1.0
 23
0.0
 33
0.0
 40
0.0
 40
0.0
 40
0.0
 40
0.0
 40
1.0
 40
1.0
 40
1.0
 40
2.0
 40
2.0
 40
2.0
 40
3.0
 40
3.0
 40
3.0
 40
4.0
 40
4.0
 40
4.0
 40
5.0
 40
5.0
 40
5.0
 40
6.0
 40
6.0
 40
6.0
 40
7.0
 40
7.0
 40
7.0
 40
8.0
 40
8.0
 40
8.0
 40
9.0
 40
9.0
 40
9.0
 40
10.0
 40
10.0
 40
10.0
 40
10.0
 10
354.2191571939566
 20
-313.4847841962599
 30
0.0
 10
354.2191571939566
 20
-313.4847841962599
 30
0.0
 10
354.2191571939566
 20
-85.48466150477901
 30
0.0
 10
354.2191571939566
 20
-85.48466150477901
 30
0.0
 10
354.2191571939566
 20
-85.48466150477901
 30
0.0
 10
259.219098895224
 20
-85.48466150477901
 30
0.0
 10
259.219098895224
 20
-85.48466150477901
 30
0.0
 10
259.219098895224
 20
-85.48466150477901
 30
0.0
 10
259.219098895224
 20
-313.4847841962599
 30
0.0
 10
259.219098895224
 20
-313.4847841962599
 30
0.0
 10
259.219098895224
 20
-313.4847841962599
 30
0.0
 10
269.2190968158333
 20
-313.4847841962599
 30
0.0
 10
269.2190968158333
 20
-313.4847841962599
 30
0.0
 10
269.2190968158333
 20
-313.4847841962599
 30
0.0
 10
269.4647908732125
 20
-310.3553995003249
 30
0.0
 10
271.410586649541
 20
-307.2334215879595
 30
0.0
 10
273.3563824258696
 20
-304.111443675594
 30
0.0
 10
277.9095654958438
 20
-303.4847916586123
 30
0.0
 10
280.6710033138926
 20
-303.4847916586123
 30
0.0
 10
280.6710033138926
 20
-303.4847916586123
 30
0.0
 10
332.767263541436
 20
-303.4847916576305
 30
0.0
 10
332.767263541436
 20
-303.4847916576305
 30
0.0
 10
335.5287013594848
 20
-303.484791657755
 30
0.0
 10
340.0818844294308
 20
-304.1114436749407
 30
0.0
 10
342.0276802056194
 20
-307.2334215873935
 30
0.0
 10
343.9734759818081
 20
-310.3553994998468
 30
0.0
 10
344.2191700390462
 20
-313.4847841957927
 30
0.0
 10
344.2191700390462
 20
-313.4847841957927
 30
0.0
 10
344.2191700390462
 20
-313.4847841957927
 30
0.0
 10
354.2191571939566
 20
-313.4847841962599
 30
0.0
 10
354.2191571939566
 20
-313.4847841962599
 30
0.0
  0
POLYLINE
  5
130
330
12B
100
AcDbEntity
  8
Layer 1
 62
     7
420
 16777215
370
    50
100
AcDb2dPolyline
 66
     1
 10
0.0
 20
0.0
 30
0.0
  0
VERTEX
  5
131
330
130
100
AcDbEntity
  8
Layer 1
 62
     7
420
 16777215
370
    50
100
AcDbVertex
100
AcDb2dVertex
 10
311.7191254604261
 20
-94.48474621951351
 30
0.0
  0
VERTEX
  5
132
330
130
100
AcDbEntity
  8
Layer 1
 62
     7
420
 16777215
370
    50
100
AcDbVertex
100
AcDb2dVertex
 10
301.7191254629258
 20
-94.48474621951351
 30
0.0
  0
VERTEX
  5
133
330
130
100
AcDbEntity
  8
Layer 1
 62
     7
420
 16777215
370
    50
100
AcDbVertex
100
AcDb2dVertex
 10
301.7191254629258
 20
-90.48474622051346
 30
0.0
  0
VERTEX
  5
134
330
130
100
AcDbEntity
  8
Layer 1
 62
     7
420
 16777215
370
    50
100
AcDbVertex
100
AcDb2dVertex
 10
311.7191254604261
 20
-90.48474622051346
 30
0.0
  0
VERTEX
  5
135
330
130
100
AcDbEntity
  8
Layer 1
 62
     7
420
 16777215
370
    50
100
AcDbVertex
100
AcDb2dVertex
 10
311.7191254604261
 20
-94.48474621951351
 30
0.0
  0
SEQEND
  5
136
330
130
100
AcDbEntity
  8
Layer 1
 62
     7
420
 16777215
370
    50
  0
POLYLINE
  5
137
330
12B
100
AcDbEntity
  8
Layer 1
 62
     7
420
 16777215
370
    50
100
AcDb2dPolyline
 66
     1
 10
0.0
 20
0.0
 30
0.0
  0
VERTEX
  5
138
330
137
100
AcDbEntity
  8
Layer 1
 62
     7
420
 16777215
370
    50
100
AcDbVertex
100
AcDb2dVertex
 10
311.7191268116858
 20
-298.4847460906381
 30
0.0
  0
VERTEX
  5
139
330
137
100
AcDbEntity
  8
Layer 1
 62
     7
420
 16777215
370
    50
100
AcDbVertex
100
AcDb2dVertex
 10
301.7191268141861
 20
-298.4847460906381
 30
0.0
  0
VERTEX
  5
13A
330
137
100
AcDbEntity
  8
Layer 1
 62
     7
420
 16777215
370
    50
100
AcDbVertex
100
AcDb2dVertex
 10
301.7191268141861
 20
-294.4847460916383
 30
0.0
  0
VERTEX
  5
13B
330
137
100
AcDbEntity
  8
Layer 1
 62
     7
420
 16777215
370
    50
100
AcDbVertex
100
AcDb2dVertex
 10
311.7191268116858
 20
-294.4847460916383
 30
0.0
  0
VERTEX
  5
13C
330
137
100
AcDbEntity
  8
Layer 1
 62
     7
420
 16777215
370
    50
100
AcDbVertex
100
AcDb2dVertex
 10
311.7191268116858
 20
-298.4847460906381
 30
0.0
  0
SEQEND
  5
13D
330
137
100
AcDbEntity
  8
Layer 1
 62
     7
420
 16777215
370
    50
  0
SPLINE
  5
13E
330
12B
100
AcDbEntity
  8
Layer 1
 62
     7
420
 16777215
370
    50
100
AcDbSpline
210
0.0
220
0.0
230
1.0
 70
    11
 71
     3
 72
    17
 73
    13
 74
     0
 42
0.0000000001
 43
0.0000000001
 12
1.0
 22
0.0
 32
0.0
 13
1.0
 23
0.0
 33
0.0
 40
0.0
 40
0.0
 40
0.0
 40
0.0
 40
1.0
 40
1.0
 40
1.0
 40
2.0
 40
2.0
 40
2.0
 40
3.0
 40
3.0
 40
3.0
 40
4.0
 40
4.0
 40
4.0
 40
4.0
 10
267.5691913001418
 20
-194.4847464430157
 30
0.0
 10
267.5691913001418
 20
-195.2303308550598
 30
0.0
 10
266.964775712523
 20
-195.8347464426787
 30
0.0
 10
266.2191913004795
 20
-195.8347464426787
 30
0.0
 10
265.473606888436
 20
-195.8347464426787
 30
0.0
 10
264.8691913008168
 20
-195.2303308550598
 30
0.0
 10
264.8691913008168
 20
-194.4847464430157
 30
0.0
 10
264.8691913008168
 20
-193.7391620309722
 30
0.0
 10
265.473606888436
 20
-193.1347464433533
 30
0.0
 10
266.2191913004795
 20
-193.1347464433533
 30
0.0
 10
266.964775712523
 20
-193.1347464433533
 30
0.0
 10
267.5691913001418
 20
-193.7391620309722
 30
0.0
 10
267.5691913001418
 20
-194.4847464430157
 30
0.0
  0
SPLINE
  5
13F
330
12B
100
AcDbEntity
  8
Layer 1
 62
     7
420
 16777215
370
    50
100
AcDbSpline
210
0.0
220
0.0
230
1.0
 70
    11
 71
     3
 72
    17
 73
    13
 74
     0
 42
0.0000000001
 43
0.0000000001
 12
1.0
 22
0.0
 32
0.0
 13
1.0
 23
0.0
 33
0.0
 40
0.0
 40
0.0
 40
0.0
 40
0.0
 40
1.0
 40
1.0
 40
1.0
 40
2.0
 40
2.0
 40
2.0
 40
3.0
 40
3.0
 40
3.0
 40
4.0
 40
4.0
 40
4.0
 40
4.0
 10
345.8690647925854
 20
-194.4847464429554
 30
0.0
 10
345.8690647925521
 20
-195.2303308549989
 30
0.0
 10
346.473480380144
 20
-195.8347464426453
 30
0.0
 10
347.2190647921875
 20
-195.8347464426787
 30
0.0
 10
347.964649204231
 20
-195.8347464427121
 30
0.0
 10
348.5690647918768
 20
-195.2303308551201
 30
0.0
 10
348.5690647919108
 20
-194.4847464430766
 30
0.0
 10
348.5690647919442
 20
-193.7391620310331
 30
0.0
 10
347.9646492043523
 20
-193.1347464433867
 30
0.0
 10
347.2190647923088
 20
-193.1347464433533
 30
0.0
 10
346.4734803802652
 20
-193.13474644332
 30
0.0
 10
345.8690647926188
 20
-193.7391620309119
 30
0.0
 10
345.8690647925854
 20
-194.4847464429554
 30
0.0
  0
ENDBLK
  5
12E
330
12B
100
AcDbEntity
  8
0
100
AcDbBlockEnd
  0
BLOCK
  5
142
330
140
100
AcDbEntity
  8
0
100
AcDbBlockBegin
  2
block 9
 70
     0
 10
0.0
 20
0.0
 30
0.0
  3
block 9
  1

  0
INSERT
  5
145
330
140
100
AcDbEntity
  8
Layer 1
100
AcDbBlockReference
  2
block 10
 10
0.0
 20
0.0
 30
0.0
  0
INSERT
  5
14A
330
140
100
AcDbEntity
  8
Layer 1
100
AcDbBlockReference
  2
block 11
 10
0.0
 20
0.0
 30
0.0
  0
INSERT
  5
14F
330
140
100
AcDbEntity
  8
Layer 1
100
AcDbBlockReference
  2
block 12
 10
0.0
 20
0.0
 30
0.0
  0
INSERT
  5
154
330
140
100
AcDbEntity
  8
Layer 1
100
AcDbBlockReference
  2
block 13
 10
0.0
 20
0.0
 30
0.0
  0
ENDBLK
  5
143
330
140
100
AcDbEntity
  8
0
100
AcDbBlockEnd
  0
BLOCK
  5
146
330
144
100
AcDbEntity
  8
0
100
AcDbBlockBegin
  2
block 10
 70
     0
 10
0.0
 20
0.0
 30
0.0
  3
block 10
  1

  0
SPLINE
  5
148
330
144
100
AcDbEntity
  8
Layer 1
 62
     7
420
 16777215
370
    50
100
AcDbSpline
210
0.0
220
0.0
230
1.0
 70
    11
 71
     3
 72
    20
 73
    16
 74
     0
 42
0.0000000001
 43
0.0000000001
 12
1.0
 22
0.0
 32
0.0
 13
1.0
 23
0.0
 33
0.0
 40
0.0
 40
0.0
 40
0.0
 40
0.0
 40
1.0
 40
1.0
 40
1.0
 40
2.0
 40
2.0
 40
2.0
 40
3.0
 40
3.0
 40
3.0
 40
4.0
 40
4.0
 40
4.0
 40
5.0
 40
5.0
 40
5.0
 40
5.0
 10
331.7192545440826
 20
-176.4847550585267
 30
0.0
 10
331.7192545440082
 20
-177.3131821832734
 30
0.0
 10
331.0476816686936
 20
-177.9847550584674
 30
0.0
 10
330.2192545439468
 20
-177.9847550583929
 30
0.0
 10
329.3908274192013
 20
-177.9847550583185
 30
0.0
 10
328.7192545440087
 20
-177.3131821830039
 30
0.0
 10
328.7192545440831
 20
-176.4847550582572
 30
0.0
 10
328.7192545441563
 20
-175.6563279335111
 30
0.0
 10
329.3908274194708
 20
-174.9847550583177
 30
0.0
 10
330.2192545442163
 20
-174.9847550583922
 30
0.0
 10
331.0476816689631
 20
-174.9847550584666
 30
0.0
 10
331.719254544157
 20
-175.6563279337805
 30
0.0
 10
331.7192545440826
 20
-176.4847550585267
 30
0.0
 10
331.7192545440826
 20
-176.4847550585267
 30
0.0
 10
331.7192545440826
 20
-176.4847550585267
 30
0.0
 10
331.7192545440826
 20
-176.4847550585267
 30
0.0
  0
ENDBLK
  5
147
330
144
100
AcDbEntity
  8
0
100
AcDbBlockEnd
  0
BLOCK
  5
14B
330
149
100
AcDbEntity
  8
0
100
AcDbBlockBegin
  2
block 11
 70
     0
 10
0.0
 20
0.0
 30
0.0
  3
block 11
  1

  0
SPLINE
  5
14D
330
149
100
AcDbEntity
  8
Layer 1
 62
     7
420
 16777215
370
    50
100
AcDbSpline
210
0.0
220
0.0
230
1.0
 70
    11
 71
     3
 72
    20
 73
    16
 74
     0
 42
0.0000000001
 43
0.0000000001
 12
1.0
 22
0.0
 32
0.0
 13
1.0
 23
0.0
 33
0.0
 40
0.0
 40
0.0
 40
0.0
 40
0.0
 40
1.0
 40
1.0
 40
1.0
 40
2.0
 40
2.0
 40
2.0
 40
3.0
 40
3.0
 40
3.0
 40
4.0
 40
4.0
 40
4.0
 40
5.0
 40
5.0
 40
5.0
 40
5.0
 10
283.7192545440828
 20
-176.4847550542161
 30
0.0
 10
283.7192545440084
 20
-177.3131821789628
 30
0.0
 10
283.0476816686938
 20
-177.9847550541558
 30
0.0
 10
282.2192545439477
 20
-177.9847550540813
 30
0.0
 10
281.3908274192016
 20
-177.9847550540069
 30
0.0
 10
280.7192545440083
 20
-177.3131821786936
 30
0.0
 10
280.7192545440827
 20
-176.4847550539469
 30
0.0
 10
280.7192545441569
 20
-175.6563279292008
 30
0.0
 10
281.3908274194708
 20
-174.9847550540071
 30
0.0
 10
282.2192545442169
 20
-174.9847550540816
 30
0.0
 10
283.047681668963
 20
-174.984755054156
 30
0.0
 10
283.7192545441569
 20
-175.6563279294699
 30
0.0
 10
283.7192545440828
 20
-176.4847550542161
 30
0.0
 10
283.7192545440828
 20
-176.4847550542161
 30
0.0
 10
283.7192545440828
 20
-176.4847550542161
 30
0.0
 10
283.7192545440828
 20
-176.4847550542161
 30
0.0
  0
ENDBLK
  5
14C
330
149
100
AcDbEntity
  8
0
100
AcDbBlockEnd
  0
BLOCK
  5
150
330
14E
100
AcDbEntity
  8
0
100
AcDbBlockBegin
  2
block 12
 70
     0
 10
0.0
 20
0.0
 30
0.0
  3
block 12
  1

  0
SPLINE
  5
152
330
14E
100
AcDbEntity
  8
Layer 1
 62
     7
420
 16777215
370
    50
100
AcDbSpline
210
0.0
220
0.0
230
1.0
 70
    11
 71
     3
 72
    20
 73
    16
 74
     0
 42
0.0000000001
 43
0.0000000001
 12
1.0
 22
0.0
 32
0.0
 13
1.0
 23
0.0
 33
0.0
 40
0.0
 40
0.0
 40
0.0
 40
0.0
 40
1.0
 40
1.0
 40
1.0
 40
2.0
 40
2.0
 40
2.0
 40
3.0
 40
3.0
 40
3.0
 40
4.0
 40
4.0
 40
4.0
 40
5.0
 40
5.0
 40
5.0
 40
5.0
 10
337.7192545351035
 20
-276.484755059066
 30
0.0
 10
337.7192545350291
 20
-277.3131821838122
 30
0.0
 10
337.0476816597151
 20
-277.9847550590054
 30
0.0
 10
336.2192545349684
 20
-277.984755058931
 30
0.0
 10
335.3908274102216
 20
-277.9847550588565
 30
0.0
 10
334.7192545350289
 20
-277.3131821835426
 30
0.0
 10
334.7192545351034
 20
-276.4847550587965
 30
0.0
 10
334.7192545351772
 20
-275.6563279340504
 30
0.0
 10
335.3908274104911
 20
-274.9847550588571
 30
0.0
 10
336.2192545352379
 20
-274.9847550589315
 30
0.0
 10
337.0476816599846
 20
-274.984755059006
 30
0.0
 10
337.7192545351779
 20
-275.6563279343199
 30
0.0
 10
337.7192545351035
 20
-276.484755059066
 30
0.0
 10
337.7192545351035
 20
-276.484755059066
 30
0.0
 10
337.7192545351035
 20
-276.484755059066
 30
0.0
 10
337.7192545351035
 20
-276.484755059066
 30
0.0
  0
ENDBLK
  5
151
330
14E
100
AcDbEntity
  8
0
100
AcDbBlockEnd
  0
BLOCK
  5
155
330
153
100
AcDbEntity
  8
0
100
AcDbBlockBegin
  2
block 13
 70
     0
 10
0.0
 20
0.0
 30
0.0
  3
block 13
  1

  0
SPLINE
  5
157
330
153
100
AcDbEntity
  8
Layer 1
 62
     7
420
 16777215
370
    50
100
AcDbSpline
210
0.0
220
0.0
230
1.0
 70
    11
 71
     3
 72
    20
 73
    16
 74
     0
 42
0.0000000001
 43
0.0000000001
 12
1.0
 22
0.0
 32
0.0
 13
1.0
 23
0.0
 33
0.0
 40
0.0
 40
0.0
 40
0.0
 40
0.0
 40
1.0
 40
1.0
 40
1.0
 40
2.0
 40
2.0
 40
2.0
 40
3.0
 40
3.0
 40
3.0
 40
4.0
 40
4.0
 40
4.0
 40
5.0
 40
5.0
 40
5.0
 40
5.0
 10
285.2192545351032
 20
-276.4847550543508
 30
0.0
 10
285.2192545350288
 20
-277.3131821790976
 30
0.0
 10
284.5476816597149
 20
-277.9847550542902
 30
0.0
 10
283.7192545349688
 20
-277.9847550542158
 30
0.0
 10
282.8908274102226
 20
-277.9847550541414
 30
0.0
 10
282.2192545350287
 20
-277.3131821788281
 30
0.0
 10
282.2192545351032
 20
-276.4847550540813
 30
0.0
 10
282.2192545351772
 20
-275.6563279293358
 30
0.0
 10
282.8908274104919
 20
-274.9847550541419
 30
0.0
 10
283.719254535238
 20
-274.9847550542164
 30
0.0
 10
284.5476816599841
 20
-274.9847550542908
 30
0.0
 10
285.2192545351774
 20
-275.6563279296054
 30
0.0
 10
285.2192545351032
 20
-276.4847550543508
 30
0.0
 10
285.2192545351032
 20
-276.4847550543508
 30
0.0
 10
285.2192545351032
 20
-276.4847550543508
 30
0.0
 10
285.2192545351032
 20
-276.4847550543508
 30
0.0
  0
ENDBLK
  5
156
330
153
100
AcDbEntity
  8
0
100
AcDbBlockEnd
  0
ENDSEC
  0
SECTION
  2
ENTITIES
  0
SPLINE
  5
41
330
1F
100
AcDbEntity
  8
Layer 1
 62
     1
420
 16711680
370
    50
100
AcDbSpline
210
0.0
220
0.0
230
1.0
 70
    11
 71
     3
 72
    44
 73
    40
 74
     0
 42
0.0000000001
 43
0.0000000001
 12
1.0
 22
0.0
 32
0.0
 13
1.0
 23
0.0
 33
0.0
 40
0.0
 40
0.0
 40
0.0
 40
0.0
 40
1.0
 40
1.0
 40
1.0
 40
2.0
 40
2.0
 40
2.0
 40
3.0
 40
3.0
 40
3.0
 40
4.0
 40
4.0
 40
4.0
 40
5.0
 40
5.0
 40
5.0
 40
6.0
 40
6.0
 40
6.0
 40
7.0
 40
7.0
 40
7.0
 40
8.0
 40
8.0
 40
8.0
 40
9.0
 40
9.0
 40
9.0
 40
10.0
 40
10.0
 40
10.0
 40
11.0
 40
11.0
 40
11.0
 40
12.0
 40
12.0
 40
12.0
 40
13.0
 40
13.0
 40
13.0
 40
13.0
 10
77.3549790083034
 20
-304.8437311046159
 30
0.0
 10
74.59354119025461
 20
-304.8437311046159
 30
0.0
 10
70.04035812028069
 20
-305.4703831215975
 30
0.0
 10
68.09456234395184
 20
-308.592361033963
 30
0.0
 10
66.148766567623
 20
-311.7143389463285
 30
0.0
 10
65.90307251024407
 20
-314.8437236422635
 30
0.0
 10
65.90307251024407
 20
-314.8437236422635
 30
0.0
 10
65.90307251024407
 20
-314.8437236422635
 30
0.0
 10
55.49873342186208
 20
-314.8437236422635
 30
0.0
 10
55.49873342186208
 20
-314.8437236422635
 30
0.0
 10
43.49775333947947
 20
-287.5976869130986
 30
0.0
 10
46.98157505624369
 20
-271.385697687439
 30
0.0
 10
46.70824814821094
 20
-212.3722221691292
 30
0.0
 10
46.67125244229767
 20
-204.384552016425
 30
0.0
 10
41.17493073175814
 20
-153.2224785838304
 30
0.0
 10
41.17493073175814
 20
-143.0760643495391
 30
0.0
 10
41.17493073175814
 20
-89.7256386426619
 30
0.0
 10
62.42111450330206
 20
-66.32222220564167
 30
0.0
 10
103.4031091219628
 20
-66.32222220564167
 30
0.0
 10
144.3851037406236
 20
-66.32222220564167
 30
0.0
 10
165.6312875121675
 20
-89.7256386426619
 30
0.0
 10
165.6312875121675
 20
-143.0760643495391
 30
0.0
 10
165.6312875121675
 20
-153.2224785838304
 30
0.0
 10
160.1349658016286
 20
-204.384552016425
 30
0.0
 10
160.0979700957147
 20
-212.3722221691292
 30
0.0
 10
159.8246431876826
 20
-271.385697687439
 30
0.0
 10
163.3084649044462
 20
-287.5976869130986
 30
0.0
 10
151.3074848220635
 20
-314.8437236422635
 30
0.0
 10
151.3074848220635
 20
-314.8437236422635
 30
0.0
 10
140.903145733457
 20
-314.8437236417963
 30
0.0
 10
140.903145733457
 20
-314.8437236417963
 30
0.0
 10
140.903145733457
 20
-314.8437236417963
 30
0.0
 10
140.6574516762186
 20
-311.7143389458504
 30
0.0
 10
138.7116559000299
 20
-308.5923610333971
 30
0.0
 10
136.7658601238413
 20
-305.4703831209443
 30
0.0
 10
132.2126770538953
 20
-304.8437311037586
 30
0.0
 10
129.4512392358465
 20
-304.8437311036341
 30
0.0
 10
129.4512392358465
 20
-304.8437311036341
 30
0.0
 10
77.3549790083034
 20
-304.8437311046159
 30
0.0
 10
77.3549790083034
 20
-304.8437311046159
 30
0.0
  0
INSERT
  5
43
330
1F
100
AcDbEntity
  8
Layer 1
100
AcDbBlockReference
  2
block 2
 10
0.0
 20
0.0
 30
0.0
  0
SPLINE
  5
73
330
1F
100
AcDbEntity
  8
Layer 1
 62
     1
420
 16711680
370
    50
100
AcDbSpline
210
0.0
220
0.0
230
1.0
 70
    11
 71
     3
 72
    17
 73
    13
 74
     0
 42
0.0000000001
 43
0.0000000001
 12
1.0
 22
0.0
 32
0.0
 13
1.0
 23
0.0
 33
0.0
 40
0.0
 40
0.0
 40
0.0
 40
0.0
 40
1.0
 40
1.0
 40
1.0
 40
2.0
 40
2.0
 40
2.0
 40
3.0
 40
3.0
 40
3.0
 40
4.0
 40
4.0
 40
4.0
 40
4.0
 10
76.0533580779938
 20
-178.5046295697791
 30
0.0
 10
76.0533580779938
 20
-179.277828219306
 30
0.0
 10
75.42655672787036
 20
-179.9046295694291
 30
0.0
 10
74.65335807834349
 20
-179.9046295694291
 30
0.0
 10
73.88015942881694
 20
-179.9046295694291
 30
0.0
 10
73.25335807869381
 20
-179.277828219306
 30
0.0
 10
73.25335807869381
 20
-178.5046295697791
 30
0.0
 10
73.25335807869381
 20
-177.7314309202522
 30
0.0
 10
73.88015942881694
 20
-177.1046295701291
 30
0.0
 10
74.65335807834349
 20
-177.1046295701291
 30
0.0
 10
75.42655672787036
 20
-177.1046295701291
 30
0.0
 10
76.0533580779938
 20
-177.7314309202522
 30
0.0
 10
76.0533580779938
 20
-178.5046295697791
 30
0.0
  0
SPLINE
  5
74
330
1F
100
AcDbEntity
  8
Layer 1
 62
     1
420
 16711680
370
    50
100
AcDbSpline
210
0.0
220
0.0
230
1.0
 70
    11
 71
     3
 72
    17
 73
    13
 74
     0
 42
0.0000000001
 43
0.0000000001
 12
1.0
 22
0.0
 32
0.0
 13
1.0
 23
0.0
 33
0.0
 40
0.0
 40
0.0
 40
0.0
 40
0.0
 40
1.0
 40
1.0
 40
1.0
 40
2.0
 40
2.0
 40
2.0
 40
3.0
 40
3.0
 40
3.0
 40
4.0
 40
4.0
 40
4.0
 40
4.0
 10
95.9699826084693
 20
-178.5046295697791
 30
0.0
 10
95.9699826084693
 20
-179.277828219306
 30
0.0
 10
95.34318125834585
 20
-179.9046295694291
 30
0.0
 10
94.56998260881898
 20
-179.9046295694291
 30
0.0
 10
93.79678395929243
 20
-179.9046295694291
 30
0.0
 10
93.1699826091693
 20
-179.277828219306
 30
0.0
 10
93.1699826091693
 20
-178.5046295697791
 30
0.0
 10
93.1699826091693
 20
-177.7314309202522
 30
0.0
 10
93.79678395929243
 20
-177.1046295701291
 30
0.0
 10
94.56998260881898
 20
-177.1046295701291
 30
0.0
 10
95.34318125834585
 20
-177.1046295701291
 30
0.0
 10
95.9699826084693
 20
-177.7314309202522
 30
0.0
 10
95.9699826084693
 20
-178.5046295697791
 30
0.0
  0
SPLINE
  5
75
330
1F
100
AcDbEntity
  8
Layer 1
 62
     1
420
 16711680
370
    50
100
AcDbSpline
210
0.0
220
0.0
230
1.0
 70
    11
 71
     3
 72
    17
 73
    13
 74
     0
 42
0.0000000001
 43
0.0000000001
 12
1.0
 22
0.0
 32
0.0
 13
1.0
 23
0.0
 33
0.0
 40
0.0
 40
0.0
 40
0.0
 40
0.0
 40
1.0
 40
1.0
 40
1.0
 40
2.0
 40
2.0
 40
2.0
 40
3.0
 40
3.0
 40
3.0
 40
4.0
 40
4.0
 40
4.0
 40
4.0
 10
115.8866071389448
 20
-178.5046295697791
 30
0.0
 10
115.8866071389448
 20
-179.277828219306
 30
0.0
 10
115.2598057888213
 20
-179.9046295694291
 30
0.0
 10
114.4866071392945
 20
-179.9046295694291
 30
0.0
 10
113.7134084897679
 20
-179.9046295694291
 30
0.0
 10
113.0866071396448
 20
-179.277828219306
 30
0.0
 10
113.0866071396448
 20
-178.5046295697791
 30
0.0
 10
113.0866071396448
 20
-177.7314309202522
 30
0.0
 10
113.7134084897679
 20
-177.1046295701291
 30
0.0
 10
114.4866071392945
 20
-177.1046295701291
 30
0.0
 10
115.2598057888213
 20
-177.1046295701291
 30
0.0
 10
115.8866071389448
 20
-177.7314309202522
 30
0.0
 10
115.8866071389448
 20
-178.5046295697791
 30
0.0
  0
SPLINE
  5
76
330
1F
100
AcDbEntity
  8
Layer 1
 62
     1
420
 16711680
370
    50
100
AcDbSpline
210
0.0
220
0.0
230
1.0
 70
    11
 71
     3
 72
    17
 73
    13
 74
     0
 42
0.0000000001
 43
0.0000000001
 12
1.0
 22
0.0
 32
0.0
 13
1.0
 23
0.0
 33
0.0
 40
0.0
 40
0.0
 40
0.0
 40
0.0
 40
1.0
 40
1.0
 40
1.0
 40
2.0
 40
2.0
 40
2.0
 40
3.0
 40
3.0
 40
3.0
 40
4.0
 40
4.0
 40
4.0
 40
4.0
 10
135.8032316694203
 20
-178.5046295697791
 30
0.0
 10
135.8032316694203
 20
-179.277828219306
 30
0.0
 10
135.1764303192968
 20
-179.9046295694291
 30
0.0
 10
134.40323166977
 20
-179.9046295694291
 30
0.0
 10
133.6300330202434
 20
-179.9046295694291
 30
0.0
 10
133.0032316701203
 20
-179.277828219306
 30
0.0
 10
133.0032316701203
 20
-178.5046295697791
 30
0.0
 10
133.0032316701203
 20
-177.7314309202522
 30
0.0
 10
133.6300330202434
 20
-177.1046295701291
 30
0.0
 10
134.40323166977
 20
-177.1046295701291
 30
0.0
 10
135.1764303192968
 20
-177.1046295701291
 30
0.0
 10
135.8032316694203
 20
-177.7314309202522
 30
0.0
 10
135.8032316694203
 20
-178.5046295697791
 30
0.0
  0
SPLINE
  5
77
330
1F
100
AcDbEntity
  8
Layer 1
 62
     1
420
 16711680
370
    50
100
AcDbSpline
210
0.0
220
0.0
230
1.0
 70
    11
 71
     3
 72
   368
 73
   364
 74
     0
 42
0.0000000001
 43
0.0000000001
 12
1.0
 22
0.0
 32
0.0
 13
1.0
 23
0.0
 33
0.0
 40
0.0
 40
0.0
 40
0.0
 40
0.0
 40
1.0
 40
1.0
 40
1.0
 40
2.0
 40
2.0
 40
2.0
 40
3.0
 40
3.0
 40
3.0
 40
4.0
 40
4.0
 40
4.0
 40
5.0
 40
5.0
 40
5.0
 40
6.0
 40
6.0
 40
6.0
 40
7.0
 40
7.0
 40
7.0
 40
8.0
 40
8.0
 40
8.0
 40
9.0
 40
9.0
 40
9.0
 40
10.0
 40
10.0
 40
10.0
 40
11.0
 40
11.0
 40
11.0
 40
12.0
 40
12.0
 40
12.0
 40
13.0
 40
13.0
 40
13.0
 40
14.0
 40
14.0
 40
14.0
 40
15.0
 40
15.0
 40
15.0
 40
16.0
 40
16.0
 40
16.0
 40
17.0
 40
17.0
 40
17.0
 40
18.0
 40
18.0
 40
18.0
 40
19.0
 40
19.0
 40
19.0
 40
20.0
 40
20.0
 40
20.0
 40
21.0
 40
21.0
 40
21.0
 40
22.0
 40
22.0
 40
22.0
 40
23.0
 40
23.0
 40
23.0
 40
24.0
 40
24.0
 40
24.0
 40
25.0
 40
25.0
 40
25.0
 40
26.0
 40
26.0
 40
26.0
 40
27.0
 40
27.0
 40
27.0
 40
28.0
 40
28.0
 40
28.0
 40
29.0
 40
29.0
 40
29.0
 40
30.0
 40
30.0
 40
30.0
 40
31.0
 40
31.0
 40
31.0
 40
32.0
 40
32.0
 40
32.0
 40
33.0
 40
33.0
 40
33.0
 40
34.0
 40
34.0
 40
34.0
 40
35.0
 40
35.0
 40
35.0
 40
36.0
 40
36.0
 40
36.0
 40
37.0
 40
37.0
 40
37.0
 40
38.0
 40
38.0
 40
38.0
 40
39.0
 40
39.0
 40
39.0
 40
40.0
 40
40.0
 40
40.0
 40
41.0
 40
41.0
 40
41.0
 40
42.0
 40
42.0
 40
42.0
 40
43.0
 40
43.0
 40
43.0
 40
44.0
 40
44.0
 40
44.0
 40
45.0
 40
45.0
 40
45.0
 40
46.0
 40
46.0
 40
46.0
 40
47.0
 40
47.0
 40
47.0
 40
48.0
 40
48.0
 40
48.0
 40
49.0
 40
49.0
 40
49.0
 40
50.0
 40
50.0
 40
50.0
 40
51.0
 40
51.0
 40
51.0
 40
52.0
 40
52.0
 40
52.0
 40
53.0
 40
53.0
 40
53.0
 40
54.0
 40
54.0
 40
54.0
 40
55.0
 40
55.0
 40
55.0
 40
56.0
 40
56.0
 40
56.0
 40
57.0
 40
57.0
 40
57.0
 40
58.0
 40
58.0
 40
58.0
 40
59.0
 40
59.0
 40
59.0
 40
60.0
 40
60.0
 40
60.0
 40
61.0
 40
61.0
 40
61.0
 40
62.0
 40
62.0
 40
62.0
 40
63.0
 40
63.0
 40
63.0
 40
64.0
 40
64.0
 40
64.0
 40
65.0
 40
65.0
 40
65.0
 40
66.0
 40
66.0
 40
66.0
 40
67.0
 40
67.0
 40
67.0
 40
68.0
 40
68.0
 40
68.0
 40
69.0
 40
69.0
 40
69.0
 40
70.0
 40
70.0
 40
70.0
 40
71.0
 40
71.0
 40
71.0
 40
72.0
 40
72.0
 40
72.0
 40
73.0
 40
73.0
 40
73.0
 40
74.0
 40
74.0
 40
74.0
 40
75.0
 40
75.0
 40
75.0
 40
76.0
 40
76.0
 40
76.0
 40
77.0
 40
77.0
 40
77.0
 40
78.0
 40
78.0
 40
78.0
 40
79.0
 40
79.0
 40
79.0
 40
80.0
 40
80.0
 40
80.0
 40
81.0
 40
81.0
 40
81.0
 40
82.0
 40
82.0
 40
82.0
 40
83.0
 40
83.0
 40
83.0
 40
84.0
 40
84.0
 40
84.0
 40
85.0
 40
85.0
 40
85.0
 40
86.0
 40
86.0
 40
86.0
 40
87.0
 40
87.0
 40
87.0
 40
88.0
 40
88.0
 40
88.0
 40
89.0
 40
89.0
 40
89.0
 40
90.0
 40
90.0
 40
90.0
 40
91.0
 40
91.0
 40
91.0
 40
92.0
 40
92.0
 40
92.0
 40
93.0
 40
93.0
 40
93.0
 40
94.0
 40
94.0
 40
94.0
 40
95.0
 40
95.0
 40
95.0
 40
96.0
 40
96.0
 40
96.0
 40
97.0
 40
97.0
 40
97.0
 40
98.0
 40
98.0
 40
98.0
 40
99.0
 40
99.0
 40
99.0
 40
100.0
 40
100.0
 40
100.0
 40
101.0
 40
101.0
 40
101.0
 40
102.0
 40
102.0
 40
102.0
 40
103.0
 40
103.0
 40
103.0
 40
104.0
 40
104.0
 40
104.0
 40
105.0
 40
105.0
 40
105.0
 40
106.0
 40
106.0
 40
106.0
 40
107.0
 40
107.0
 40
107.0
 40
108.0
 40
108.0
 40
108.0
 40
109.0
 40
109.0
 40
109.0
 40
110.0
 40
110.0
 40
110.0
 40
111.0
 40
111.0
 40
111.0
 40
112.0
 40
112.0
 40
112.0
 40
113.0
 40
113.0
 40
113.0
 40
114.0
 40
114.0
 40
114.0
 40
115.0
 40
115.0
 40
115.0
 40
116.0
 40
116.0
 40
116.0
 40
117.0
 40
117.0
 40
117.0
 40
118.0
 40
118.0
 40
118.0
 40
119.0
 40
119.0
 40
119.0
 40
120.0
 40
120.0
 40
120.0
 40
121.0
 40
121.0
 40
121.0
 40
121.0
 10
167.6512733034974
 20
-286.3162074101451
 30
0.0
 10
167.6608059234241
 20
-285.6693054721073
 30
0.0
 10
167.6801684681683
 20
-285.0225375669389
 30
0.0
 10
167.7094708384245
 20
-284.3764980470046
 30
0.0
 10
167.9365591662543
 20
-279.2028929761144
 30
0.0
 10
168.783471155835
 20
-274.0876128995299
 30
0.0
 10
170.0689716785238
 20
-269.1935866401585
 30
0.0
 10
170.3924783982438
 20
-267.9706375792903
 30
0.0
 10
170.7396489768328
 20
-266.7585580353841
 30
0.0
 10
171.1100407323355
 20
-265.5595859029805
 30
0.0
 10
171.4804324878388
 20
-264.3606137705764
 30
0.0
 10
171.8740692149047
 20
-263.1747680511363
 30
0.0
 10
172.2905224398562
 20
-262.004220048441
 30
0.0
 10
172.6621697336652
 20
-260.9596109267885
 30
0.0
 10
173.0548160596025
 20
-259.9293547557351
 30
0.0
 10
173.4625264514866
 20
-258.9107579506882
 30
0.0
 10
172.0705187917772
 20
-258.0299659766949
 30
0.0
 10
171.7774789165223
 20
-255.4499180545818
 30
0.0
 10
172.8420728150941
 20
-252.9082844924726
 30
0.0
 10
173.9576657578512
 20
-250.2449367075297
 30
0.0
 10
176.1478024714632
 20
-248.619789255249
 30
0.0
 10
177.7811912012864
 20
-249.2126820798117
 30
0.0
 10
178.0764715692039
 20
-248.5343395882525
 30
0.0
 10
178.3714694830413
 20
-247.8565703935503
 30
0.0
 10
178.6654541572083
 20
-247.1811679955457
 30
0.0
 10
178.7559918130434
 20
-246.9897876741018
 30
0.0
 10
178.8343936797781
 20
-246.7772984323892
 30
0.0
 10
178.9116619621503
 20
-246.5628128381292
 30
0.0
 10
178.9116619621503
 20
-246.5628128381292
 30
0.0
 10
179.1475637692624
 20
-245.9247904750453
 30
0.0
 10
179.1475637692624
 20
-245.9247904750453
 30
0.0
 10
179.2001007255018
 20
-245.7835341768906
 30
0.0
 10
179.2523838154944
 20
-245.6429129731674
 30
0.0
 10
179.3048519556587
 20
-245.5018160477698
 30
0.0
 10
179.4108249277553
 20
-245.2168844435581
 30
0.0
 10
179.5168619227439
 20
-244.9317506704816
 30
0.0
 10
179.62254542226
 20
-244.6475231480539
 30
0.0
 10
179.77447673252
 20
-244.222180386374
 30
0.0
 10
179.9218761056859
 20
-243.7969985401787
 30
0.0
 10
180.0645201461111
 20
-243.37211096226
 30
0.0
 10
180.2071641865364
 20
-242.94722338434
 30
0.0
 10
180.3451028801089
 20
-242.5226894756782
 30
0.0
 10
180.4781318326438
 20
-242.0986187944178
 30
0.0
 10
180.6649220386741
 20
-241.5032116249936
 30
0.0
 10
180.8383218552584
 20
-240.9093475184209
 30
0.0
 10
181.0053690172791
 20
-240.3164115768882
 30
0.0
 10
181.5521074611138
 20
-238.3755882612914
 30
0.0
 10
181.9942530681678
 20
-236.4501626932078
 30
0.0
 10
182.3081346323281
 20
-234.5587975836903
 30
0.0
 10
182.5545147652989
 20
-233.0836440468969
 30
0.0
 10
182.7204692009622
 20
-231.6311264385778
 30
0.0
 10
182.8154497201527
 20
-230.2067077637518
 30
0.0
 10
182.0406719989215
 20
-229.1519633420373
 30
0.0
 10
181.5308666833722
 20
-227.5779228895491
 30
0.0
 10
181.4971420122292
 20
-225.8071724514099
 30
0.0
 10
181.4667296693566
 20
-224.2097294927578
 30
0.0
 10
181.8288464215937
 20
-222.7559980957668
 30
0.0
 10
182.4388023198063
 20
-221.6910682421743
 30
0.0
 10
182.2138119094984
 20
-220.3283562324855
 30
0.0
 10
181.9144627644624
 20
-219.0194287000598
 30
0.0
 10
181.5499245565141
 20
-217.77612852337
 30
0.0
 10
181.455793330378
 20
-217.4550875348925
 30
0.0
 10
181.357419128415
 20
-217.1383350612581
 30
0.0
 10
181.2550161024538
 20
-216.8260421156369
 30
0.0
 10
180.9478953559337
 20
-215.8895650486389
 30
0.0
 10
180.6066019313833
 20
-214.9921233591292
 30
0.0
 10
180.2390007293016
 20
-214.1381661273539
 30
0.0
 10
180.1164653975462
 20
-213.853499451391
 30
0.0
 10
179.9910096613087
 20
-213.5737098218052
 30
0.0
 10
179.8629236782709
 20
-213.2988730731708
 30
0.0
 10
179.6067779034341
 20
-212.7492399754229
 30
0.0
 10
179.3400661199648
 20
-212.2195967757041
 30
0.0
 10
179.0652100749045
 20
-211.7112538898708
 30
0.0
 10
178.7903350283809
 20
-211.2029347986851
 30
0.0
 10
178.5072943222118
 20
-210.7159184179756
 30
0.0
 10
178.2184075063462
 20
-210.2515699426694
 30
0.0
 10
177.9312717355007
 20
-209.7856386951124
 30
0.0
 10
177.6405118284713
 20
-209.3409348347687
 30
0.0
 10
177.3492094477744
 20
-208.9175032105368
 30
0.0
 10
176.9122356769689
 20
-208.2823688698084
 30
0.0
 10
176.4740793861555
 20
-207.6950982158092
 30
0.0
 10
176.0450842247546
 20
-207.1559627422843
 30
0.0
 10
175.6160890633536
 20
-206.6168272687582
 30
0.0
 10
175.1962716362357
 20
-206.1257817830043
 30
0.0
 10
174.7960801865061
 20
-205.6830643977517
 30
0.0
 10
174.6625370732536
 20
-205.535349396482
 30
0.0
 10
174.5312171349483
 20
-205.3929753490673
 30
0.0
 10
174.4024151511797
 20
-205.2558659071056
 30
0.0
 10
173.6972601703548
 20
-204.505299276099
 30
0.0
 10
173.0710952484398
 20
-203.9167908744624
 30
0.0
 10
172.570938755181
 20
-203.4739163882123
 30
0.0
 10
172.4315818868561
 20
-203.3505123206942
 30
0.0
 10
172.2990229279364
 20
-203.2349918075691
 30
0.0
 10
172.180874796697
 20
-203.1345837935088
 30
0.0
 10
172.1772126462909
 20
-203.1314839871588
 30
0.0
 10
172.1742311255691
 20
-203.1290446101075
 30
0.0
 10
172.17059276981
 20
-203.1259638052207
 30
0.0
 10
172.0219316829753
 20
-202.9999618467801
 30
0.0
 10
171.8909104773881
 20
-202.8917873713073
 30
0.0
 10
171.7798285026099
 20
-202.8014645147445
 30
0.0
 10
171.7777535750879
 20
-202.7997685913453
 30
0.0
 10
171.7754359079057
 20
-202.7978398572052
 30
0.0
 10
171.7733633769756
 20
-202.7961653318611
 30
0.0
 10
171.5742139873432
 20
-202.63432678783
 30
0.0
 10
171.4438289063468
 20
-202.532992671558
 30
0.0
 10
171.3838807727983
 20
-202.4825290637123
 30
0.0
 10
171.3577818099623
 20
-202.4605573802787
 30
0.0
 10
171.3412524035302
 20
-202.4454871647555
 30
0.0
 10
171.3444419114412
 20
-202.4437866169367
 30
0.0
 10
171.3465476508574
 20
-202.4426624476685
 30
0.0
 10
171.3552318395872
 20
-202.4459147770363
 30
0.0
 10
171.3707654625727
 20
-202.4534482551769
 30
0.0
 10
171.2170512055637
 20
-202.3784734739207
 30
0.0
 10
171.0706148514661
 20
-202.2947753008301
 30
0.0
 10
170.9292549697031
 20
-202.2055252712578
 30
0.0
 10
170.8849772424476
 20
-202.1775513558283
 30
0.0
 10
170.8441776393107
 20
-202.1461979153457
 30
0.0
 10
170.801137575023
 20
-202.1168937249705
 30
0.0
 10
170.7059165362482
 20
-202.0521158608256
 30
0.0
 10
170.6120997229752
 20
-201.9861407319767
 30
0.0
 10
170.5230627196787
 20
-201.9152536342621
 30
0.0
 10
170.4777197078011
 20
-201.8791224378457
 30
0.0
 10
170.4350925362014
 20
-201.840737083314
 30
0.0
 10
170.391376974197
 20
-201.8030802903117
 30
0.0
 10
170.3091620137371
 20
-201.7323607790133
 30
0.0
 10
170.2290714516075
 20
-201.660103345619
 30
0.0
 10
170.1527252053544
 20
-201.584328241196
 30
0.0
 10
170.1129598948834
 20
-201.5447990308338
 30
0.0
 10
170.0746537602606
 20
-201.5043697319483
 30
0.0
 10
170.0364970694743
 20
-201.4635336987375
 30
0.0
 10
169.9604955861883
 20
-201.3823250284815
 30
0.0
 10
169.8879422702451
 20
-201.2988235120841
 30
0.0
 10
169.8184873917083
 20
-201.2128083217665
 30
0.0
 10
169.7872566536003
 20
-201.1740348868008
 30
0.0
 10
169.7560736760609
 20
-201.1354944338525
 30
0.0
 10
169.726173725468
 20
-201.0958352899189
 30
0.0
 10
169.6524738095312
 20
-200.9982273193313
 30
0.0
 10
169.5838455739998
 20
-200.8977330053573
 30
0.0
 10
169.5184991145535
 20
-200.7950078140905
 30
0.0
 10
169.4987170249072
 20
-200.7638570462584
 30
0.0
 10
169.4777563307248
 20
-200.7335966093047
 30
0.0
 10
169.4587490217037
 20
-200.7020124020825
 30
0.0
 10
169.3797719872115
 20
-200.5710224388001
 30
0.0
 10
169.3071337402983
 20
-200.4368525502095
 30
0.0
 10
169.2417660377544
 20
-200.2991167149414
 30
0.0
 10
169.2394124204333
 20
-200.2941587007647
 30
0.0
 10
169.2365882171702
 20
-200.2894483907071
 30
0.0
 10
169.2342559979048
 20
-200.2844879799385
 30
0.0
 10
169.0916427755392
 20
-199.9811185560376
 30
0.0
 10
168.9828980478173
 20
-199.663274272779
 30
0.0
 10
168.9091987102907
 20
-199.3362399360026
 30
0.0
 10
168.9091963136981
 20
-199.3362185379471
 30
0.0
 10
168.9091725190505
 20
-199.3361995364839
 30
0.0
 10
168.9091701224586
 20
-199.3361781384289
 30
0.0
 10
168.9091701224586
 20
-199.3361781384289
 30
0.0
 10
168.909167725866
 20
-199.3361567403734
 30
0.0
 10
168.909167725866
 20
-199.3361567403734
 30
0.0
 10
168.6880791283812
 20
-198.3549443431743
 30
0.0
 10
168.7841148264075
 20
-197.2953142560065
 30
0.0
 10
169.259357847283
 20
-196.3210016389622
 30
0.0
 10
170.3697265910633
 20
-194.0445305455443
 30
0.0
 10
173.1153333700794
 20
-193.0992252798919
 30
0.0
 10
175.3918068600902
 20
-194.2096154217276
 30
0.0
 10
175.5150252852184
 20
-194.2703692399968
 30
0.0
 10
176.1601285281212
 20
-194.5195828603257
 30
0.0
 10
177.2276928727302
 20
-195.0482110786453
 30
0.0
 10
178.293931223008
 20
-195.5777678020441
 30
0.0
 10
179.7852253179695
 20
-196.3872718482446
 30
0.0
 10
181.5658290227898
 20
-197.5929359534548
 30
0.0
 10
183.3438004242566
 20
-198.7985048813298
 30
0.0
 10
185.4138571931756
 20
-200.4039312798951
 30
0.0
 10
187.5694199795413
 20
-202.5269262956907
 30
0.0
 10
189.7290038850484
 20
-204.642104342831
 30
0.0
 10
191.9401957066637
 20
-207.3070523588903
 30
0.0
 10
193.9521621178421
 20
-210.5167357542138
 30
0.0
 10
195.9634780261308
 20
-213.722158711212
 30
0.0
 10
197.7490015581332
 20
-217.4833091557843
 30
0.0
 10
199.0699669625872
 20
-221.6384523000376
 30
0.0
 10
200.3980514135295
 20
-225.7908047920631
 30
0.0
 10
201.2564064185067
 20
-230.3213493189281
 30
0.0
 10
201.6129972629899
 20
-234.987975959729
 30
0.0
 10
201.9751024735985
 20
-239.6576032902221
 30
0.0
 10
201.8461516214068
 20
-244.4561984750702
 30
0.0
 10
201.3475774086822
 20
-249.2333805393721
 30
0.0
 10
201.2780574533564
 20
-249.82850160523
 30
0.0
 10
201.2084053441639
 20
-250.4247641290702
 30
0.0
 10
201.1385900966793
 20
-251.0220849152639
 30
0.0
 10
201.1385900966793
 20
-251.0220849152639
 30
0.0
 10
201.0316300172676
 20
-251.9211116381697
 30
0.0
 10
201.0316300172676
 20
-251.9211116381697
 30
0.0
 10
200.9975882446574
 20
-252.2201517179793
 30
0.0
 10
200.9613674659194
 20
-252.5208225018831
 30
0.0
 10
200.903701047586
 20
-252.8346851119228
 30
0.0
 10
200.6895245411452
 20
-254.0810521550821
 30
0.0
 10
200.4747639550635
 20
-255.3311029167221
 30
0.0
 10
200.259518062191
 20
-256.5835913451756
 30
0.0
 10
200.259518062191
 20
-256.5835913451756
 30
0.0
 10
200.1758155890854
 20
-257.0553719661194
 30
0.0
 10
200.1758155890854
 20
-257.0553719661194
 30
0.0
 10
200.1758155890854
 20
-257.0553719661194
 30
0.0
 10
200.1336887456803
 20
-257.2915098094354
 30
0.0
 10
200.1336887456803
 20
-257.2915098094354
 30
0.0
 10
200.1336887456803
 20
-257.2915098094354
 30
0.0
 10
200.0949747882617
 20
-257.4878974232512
 30
0.0
 10
200.0949747882617
 20
-257.4878974232512
 30
0.0
 10
200.0949747882617
 20
-257.4878974232512
 30
0.0
 10
199.9400467182708
 20
-258.272415978673
 30
0.0
 10
199.9400467182708
 20
-258.272415978673
 30
0.0
 10
199.9400467182708
 20
-258.272415978673
 30
0.0
 10
199.6298805640256
 20
-259.8431344633424
 30
0.0
 10
199.6298805640256
 20
-259.8431344633424
 30
0.0
 10
199.6298805640256
 20
-259.8431344633424
 30
0.0
 10
199.319430415484
 20
-261.4153797422662
 30
0.0
 10
199.319430415484
 20
-261.4153797422662
 30
0.0
 10
199.319430415484
 20
-261.4153797422662
 30
0.0
 10
199.2999998275142
 20
-261.5136901258198
 30
0.0
 10
199.2999998275142
 20
-261.5136901258198
 30
0.0
 10
199.2999998275142
 20
-261.5136901258198
 30
0.0
 10
199.290313035724
 20
-261.5628096256252
 30
0.0
 10
199.290313035724
 20
-261.5628096256252
 30
0.0
 10
199.3056391614961
 20
-261.5236100909826
 30
0.0
 10
199.1199703692751
 20
-262.0855036239043
 30
0.0
 10
199.1951147646313
 20
-261.8677242705982
 30
0.0
 10
199.1951147646313
 20
-261.8677242705982
 30
0.0
 10
199.1654049265717
 20
-262.039075298293
 30
0.0
 10
199.1654049265717
 20
-262.039075298293
 30
0.0
 10
199.1654049265717
 20
-262.039075298293
 30
0.0
 10
199.1059303001058
 20
-262.381480177501
 30
0.0
 10
199.1059303001058
 20
-262.381480177501
 30
0.0
 10
199.1059303001058
 20
-262.381480177501
 30
0.0
 10
198.9866706891061
 20
-263.0648730423546
 30
0.0
 10
198.9866706891061
 20
-263.0648730423546
 30
0.0
 10
198.2673476071148
 20
-266.7035060528623
 30
0.0
 10
197.9480346255215
 20
-270.2752379401424
 30
0.0
 10
197.8973479506388
 20
-273.6299668771192
 30
0.0
 10
197.8546759613882
 20
-276.9864198089925
 30
0.0
 10
198.1486040282375
 20
-280.1228283249102
 30
0.0
 10
198.748602883064
 20
-282.9057012631177
 30
0.0
 10
199.3450149120029
 20
-285.6927242276445
 30
0.0
 10
200.2391184187176
 20
-288.1208451569752
 30
0.0
 10
201.2964812220158
 20
-290.1806590684661
 30
0.0
 10
202.3536728421252
 20
-292.2432004618998
 30
0.0
 10
203.5691987868744
 20
-293.9476280179377
 30
0.0
 10
204.8138434150579
 20
-295.3626451353957
 30
0.0
 10
207.2926205691722
 20
-298.1765885502991
 30
0.0
 10
209.9066544926494
 20
-299.8760045469366
 30
0.0
 10
211.6591326184789
 20
-300.7692248586002
 30
0.0
 10
211.6591326184789
 20
-300.7692248586002
 30
0.0
 10
206.6096581756856
 20
-315.6629814671218
 30
0.0
 10
206.6096581756856
 20
-315.6629814671218
 30
0.0
 10
206.6096581756856
 20
-315.6629814671218
 30
0.0
 10
206.6096581756856
 20
-315.6629814671218
 30
0.0
 10
206.6096581756856
 20
-315.6629814671218
 30
0.0
 10
206.6096581756856
 20
-315.6629814671218
 30
0.0
 10
206.4738953965075
 20
-316.0634168836206
 30
0.0
 10
206.4738953965075
 20
-316.0634168836206
 30
0.0
 10
206.4738953965075
 20
-316.0634168836206
 30
0.0
 10
210.0672866418274
 20
-317.2814343593731
 30
0.0
 10
210.0672866418274
 20
-317.2814343593731
 30
0.0
 10
210.0672866418274
 20
-317.2814343593731
 30
0.0
 10
212.05418850493
 20
-323.431942308467
 30
0.0
 10
212.05418850493
 20
-323.431942308467
 30
0.0
 10
212.05418850493
 20
-323.431942308467
 30
0.0
 10
213.5918017072758
 20
-323.0513407538603
 30
0.0
 10
213.5918017072758
 20
-323.0513407538603
 30
0.0
 10
213.5918017072758
 20
-323.0513407538603
 30
0.0
 10
211.5695241034308
 20
-318.9552884106895
 30
0.0
 10
211.5695241034308
 20
-318.9552884106895
 30
0.0
 10
211.5695241034308
 20
-318.9552884106895
 30
0.0
 10
211.923012493168
 20
-317.9110447762559
 30
0.0
 10
211.923012493168
 20
-317.9110447762559
 30
0.0
 10
211.923012493168
 20
-317.9110447762559
 30
0.0
 10
214.7798621495429
 20
-318.8796031955527
 30
0.0
 10
214.7798621495429
 20
-318.8796031955527
 30
0.0
 10
217.1585557257579
 20
-319.6852889036682
 30
0.0
 10
217.4863690068034
 20
-321.9465199771399
 30
0.0
 10
216.6799033823283
 20
-324.325214238454
 30
0.0
 10
215.8730572147668
 20
-326.7037994554486
 30
0.0
 10
214.2388728066089
 20
-328.2990713684215
 30
0.0
 10
211.8604692168001
 20
-327.4932665157938
 30
0.0
 10
211.8604692168001
 20
-327.4932665157938
 30
0.0
 10
203.5535823473852
 20
-324.6771832573277
 30
0.0
 10
203.5535823473852
 20
-324.6771832573277
 30
0.0
 10
203.5535823473852
 20
-324.6771832573277
 30
0.0
 10
198.3684567375997
 20
-339.9712111164089
 30
0.0
 10
198.3684567375997
 20
-339.9712111164089
 30
0.0
 10
196.8615445592592
 20
-339.3801427171138
 30
0.0
 10
195.4001096703121
 20
-338.6045174294939
 30
0.0
 10
194.0165882671503
 20
-337.6342891077979
 30
0.0
 10
193.9986248497164
 20
-337.6216978149808
 30
0.0
 10
193.9799758393943
 20
-337.6109166268706
 30
0.0
 10
193.9620480282949
 20
-337.5982563467032
 30
0.0
 10
193.9620480282949
 20
-337.5982563467032
 30
0.0
 10
193.9416767295485
 20
-337.5838980890945
 30
0.0
 10
193.9113457449436
 20
-337.5624437270343
 30
0.0
 10
193.9012290829204
 20
-337.5553002045647
 30
0.0
 10
193.8944529153759
 20
-337.5505125209662
 30
0.0
 10
193.8810195535224
 20
-337.5410321610863
 30
0.0
 10
193.8115458648803
 20
-337.4985686918083
 30
0.0
 10
193.7247216000629
 20
-337.4455036063102
 30
0.0
 10
193.6287069529845
 20
-337.3867945737057
 30
0.0
 10
193.4789871062876
 20
-337.2952525593869
 30
0.0
 10
193.3011965964849
 20
-337.1865746521177
 30
0.0
 10
193.0879816798113
 20
-337.0562328553809
 30
0.0
 10
192.8717302857937
 20
-336.9096129593778
 30
0.0
 10
192.6031267328468
 20
-336.727538562344
 30
0.0
 10
192.2839458618948
 20
-336.5111542026975
 30
0.0
 10
192.0107554139779
 20
-336.3126936897274
 30
0.0
 10
191.694221048383
 20
-336.0827963706254
 30
0.0
 10
191.3359130405742
 20
-335.822521362867
 30
0.0
 10
190.8257629979949
 20
-335.4395689713723
 30
0.0
 10
190.260737013586
 20
-334.9984349475035
 30
0.0
 10
189.6491654342906
 20
-334.4947629854784
 30
0.0
 10
189.4453074423276
 20
-334.326865198786
 30
0.0
 10
189.2362978222762
 20
-334.1520477965835
 30
0.0
 10
189.0223931795245
 20
-333.9700870406739
 30
0.0
 10
188.594631483317
 20
-333.6062035317822
 30
0.0
 10
188.1473682700284
 20
-333.2138678066211
 30
0.0
 10
187.6831466552765
 20
-332.7917983772092
 30
0.0
 10
187.2189274371172
 20
-332.3697503458517
 30
0.0
 10
186.7377046247911
 20
-331.9179520053721
 30
0.0
 10
186.2419809343975
 20
-331.4351480590284
 30
0.0
 10
186.1937512340739
 20
-331.3881386056128
 30
0.0
 10
186.1436847227235
 20
-331.3371099133135
 30
0.0
 10
186.0951715406715
 20
-331.2895038822159
 30
0.0
 10
185.7013735139314
 20
-330.9030965922
 30
0.0
 10
185.2984984223334
 20
-330.4965811247993
 30
0.0
 10
184.8881564270361
 20
-330.0704054689799
 30
0.0
 10
183.2729490374926
 20
-328.3928675806244
 30
0.0
 10
181.5450276709954
 20
-326.4075065486372
 30
0.0
 10
179.8091322002734
 20
-324.0741217102679
 30
0.0
 10
178.97355828937
 20
-322.9508954904773
 30
0.0
 10
178.1369238531401
 20
-321.746430437237
 30
0.0
 10
177.3158847973044
 20
-320.4628043796981
 30
0.0
 10
176.7685301628392
 20
-319.6070314777531
 30
0.0
 10
176.2281353583209
 20
-318.7160943761169
 30
0.0
 10
175.699615774344
 20
-317.7905475389525
 30
0.0
 10
175.6308582853209
 20
-317.6701345446358
 30
0.0
 10
175.5641621968752
 20
-317.544139053217
 30
0.0
 10
175.4958174330309
 20
-317.4225748432738
 30
0.0
 10
174.0429590317622
 20
-316.9634028404815
 30
0.0
 10
172.566892275804
 20
-315.3471754548531
 30
0.0
 10
171.773100732551
 20
-313.1354908554917
 30
0.0
 10
171.1851332514836
 20
-311.4973185810718
 30
0.0
 10
171.0957290228955
 20
-309.8741996938854
 30
0.0
 10
171.4238890357324
 20
-308.621414721632
 30
0.0
 10
171.4163858405989
 20
-308.6010436042022
 30
0.0
 10
171.4081842132422
 20
-308.5814007057518
 30
0.0
 10
171.400676224925
 20
-308.5609867922112
 30
0.0
 10
171.1950094877297
 20
-308.0014533895016
 30
0.0
 10
170.9960324644637
 20
-307.4349091244841
 30
0.0
 10
170.8042948286126
 20
-306.861812428862
 30
0.0
 10
170.0373656832635
 20
-304.569423249781
 30
0.0
 10
169.3862549248742
 20
-302.1722831698612
 30
0.0
 10
168.8853723542082
 20
-299.700987970159
 30
0.0
 10
168.5064887780832
 20
-297.8484948910167
 30
0.0
 10
168.2134499067388
 20
-295.9571374237061
 30
0.0
 10
168.007502484475
 20
-294.0440441126795
 30
0.0
 10
167.8702271987482
 20
-292.7686604407729
 30
0.0
 10
167.7716253862539
 20
-291.483593702447
 30
0.0
 10
167.7121366510194
 20
-290.1939296163641
 30
0.0
 10
167.6526479157855
 20
-288.9042655302824
 30
0.0
 10
167.6322294616998
 20
-287.6100088896306
 30
0.0
 10
167.6512733034974
 20
-286.3162074101451
 30
0.0
  0
SPLINE
  5
78
330
1F
100
AcDbEntity
  8
Layer 1
 62
     1
420
 16711680
370
    50
100
AcDbSpline
210
0.0
220
0.0
230
1.0
 70
    11
 71
     3
 72
   359
 73
   355
 74
     0
 42
0.0000000001
 43
0.0000000001
 12
1.0
 22
0.0
 32
0.0
 13
1.0
 23
0.0
 33
0.0
 40
0.0
 40
0.0
 40
0.0
 40
0.0
 40
1.0
 40
1.0
 40
1.0
 40
2.0
 40
2.0
 40
2.0
 40
3.0
 40
3.0
 40
3.0
 40
4.0
 40
4.0
 40
4.0
 40
5.0
 40
5.0
 40
5.0
 40
6.0
 40
6.0
 40
6.0
 40
7.0
 40
7.0
 40
7.0
 40
8.0
 40
8.0
 40
8.0
 40
9.0
 40
9.0
 40
9.0
 40
10.0
 40
10.0
 40
10.0
 40
11.0
 40
11.0
 40
11.0
 40
12.0
 40
12.0
 40
12.0
 40
13.0
 40
13.0
 40
13.0
 40
14.0
 40
14.0
 40
14.0
 40
15.0
 40
15.0
 40
15.0
 40
16.0
 40
16.0
 40
16.0
 40
17.0
 40
17.0
 40
17.0
 40
18.0
 40
18.0
 40
18.0
 40
19.0
 40
19.0
 40
19.0
 40
20.0
 40
20.0
 40
20.0
 40
21.0
 40
21.0
 40
21.0
 40
22.0
 40
22.0
 40
22.0
 40
23.0
 40
23.0
 40
23.0
 40
24.0
 40
24.0
 40
24.0
 40
25.0
 40
25.0
 40
25.0
 40
26.0
 40
26.0
 40
26.0
 40
27.0
 40
27.0
 40
27.0
 40
28.0
 40
28.0
 40
28.0
 40
29.0
 40
29.0
 40
29.0
 40
30.0
 40
30.0
 40
30.0
 40
31.0
 40
31.0
 40
31.0
 40
32.0
 40
32.0
 40
32.0
 40
33.0
 40
33.0
 40
33.0
 40
34.0
 40
34.0
 40
34.0
 40
35.0
 40
35.0
 40
35.0
 40
36.0
 40
36.0
 40
36.0
 40
37.0
 40
37.0
 40
37.0
 40
38.0
 40
38.0
 40
38.0
 40
39.0
 40
39.0
 40
39.0
 40
40.0
 40
40.0
 40
40.0
 40
41.0
 40
41.0
 40
41.0
 40
42.0
 40
42.0
 40
42.0
 40
43.0
 40
43.0
 40
43.0
 40
44.0
 40
44.0
 40
44.0
 40
45.0
 40
45.0
 40
45.0
 40
46.0
 40
46.0
 40
46.0
 40
47.0
 40
47.0
 40
47.0
 40
48.0
 40
48.0
 40
48.0
 40
49.0
 40
49.0
 40
49.0
 40
50.0
 40
50.0
 40
50.0
 40
51.0
 40
51.0
 40
51.0
 40
52.0
 40
52.0
 40
52.0
 40
53.0
 40
53.0
 40
53.0
 40
54.0
 40
54.0
 40
54.0
 40
55.0
 40
55.0
 40
55.0
 40
56.0
 40
56.0
 40
56.0
 40
57.0
 40
57.0
 40
57.0
 40
58.0
 40
58.0
 40
58.0
 40
59.0
 40
59.0
 40
59.0
 40
60.0
 40
60.0
 40
60.0
 40
61.0
 40
61.0
 40
61.0
 40
62.0
 40
62.0
 40
62.0
 40
63.0
 40
63.0
 40
63.0
 40
64.0
 40
64.0
 40
64.0
 40
65.0
 40
65.0
 40
65.0
 40
66.0
 40
66.0
 40
66.0
 40
67.0
 40
67.0
 40
67.0
 40
68.0
 40
68.0
 40
68.0
 40
69.0
 40
69.0
 40
69.0
 40
70.0
 40
70.0
 40
70.0
 40
71.0
 40
71.0
 40
71.0
 40
72.0
 40
72.0
 40
72.0
 40
73.0
 40
73.0
 40
73.0
 40
74.0
 40
74.0
 40
74.0
 40
75.0
 40
75.0
 40
75.0
 40
76.0
 40
76.0
 40
76.0
 40
77.0
 40
77.0
 40
77.0
 40
78.0
 40
78.0
 40
78.0
 40
79.0
 40
79.0
 40
79.0
 40
80.0
 40
80.0
 40
80.0
 40
81.0
 40
81.0
 40
81.0
 40
82.0
 40
82.0
 40
82.0
 40
83.0
 40
83.0
 40
83.0
 40
84.0
 40
84.0
 40
84.0
 40
85.0
 40
85.0
 40
85.0
 40
86.0
 40
86.0
 40
86.0
 40
87.0
 40
87.0
 40
87.0
 40
88.0
 40
88.0
 40
88.0
 40
89.0
 40
89.0
 40
89.0
 40
90.0
 40
90.0
 40
90.0
 40
91.0
 40
91.0
 40
91.0
 40
92.0
 40
92.0
 40
92.0
 40
93.0
 40
93.0
 40
93.0
 40
94.0
 40
94.0
 40
94.0
 40
95.0
 40
95.0
 40
95.0
 40
96.0
 40
96.0
 40
96.0
 40
97.0
 40
97.0
 40
97.0
 40
98.0
 40
98.0
 40
98.0
 40
99.0
 40
99.0
 40
99.0
 40
100.0
 40
100.0
 40
100.0
 40
101.0
 40
101.0
 40
101.0
 40
102.0
 40
102.0
 40
102.0
 40
103.0
 40
103.0
 40
103.0
 40
104.0
 40
104.0
 40
104.0
 40
105.0
 40
105.0
 40
105.0
 40
106.0
 40
106.0
 40
106.0
 40
107.0
 40
107.0
 40
107.0
 40
108.0
 40
108.0
 40
108.0
 40
109.0
 40
109.0
 40
109.0
 40
110.0
 40
110.0
 40
110.0
 40
111.0
 40
111.0
 40
111.0
 40
112.0
 40
112.0
 40
112.0
 40
113.0
 40
113.0
 40
113.0
 40
114.0
 40
114.0
 40
114.0
 40
115.0
 40
115.0
 40
115.0
 40
116.0
 40
116.0
 40
116.0
 40
117.0
 40
117.0
 40
117.0
 40
118.0
 40
118.0
 40
118.0
 40
118.0
 10
252.7214173426899
 20
-183.1659299604477
 30
0.0
 10
251.6548373123033
 20
-180.8919300898682
 30
0.0
 10
249.8532676919855
 20
-179.4884627847177
 30
0.0
 10
247.5793324169463
 20
-180.5539877546119
 30
0.0
 10
247.5793324169463
 20
-180.5539877546119
 30
0.0
 10
239.6374829858806
 20
-184.2771885729086
 30
0.0
 10
239.6374829858806
 20
-184.2771885729086
 30
0.0
 10
239.6374829858806
 20
-184.2771885729086
 30
0.0
 10
232.782281266403
 20
-169.6553205277902
 30
0.0
 10
232.782281266403
 20
-169.6553205277902
 30
0.0
 10
231.3319391308063
 20
-170.4202178529028
 30
0.0
 10
229.9481088699218
 20
-171.3663702642331
 30
0.0
 10
228.6673730914334
 20
-172.5039838571561
 30
0.0
 10
228.6673730914334
 20
-172.5039838571561
 30
0.0
 10
228.6423746173186
 20
-172.5261616593424
 30
0.0
 10
228.5932389429602
 20
-172.5698497764648
 30
0.0
 10
228.5520915837583
 20
-172.6018030370904
 30
0.0
 10
228.5058627087156
 20
-172.6376966256774
 30
0.0
 10
228.4546384452192
 20
-172.677487478532
 30
0.0
 10
228.3521683863798
 20
-172.7570476523945
 30
0.0
 10
228.2296091144921
 20
-172.8521968833278
 30
0.0
 10
228.0873051391045
 20
-172.9626983210171
 30
0.0
 10
228.0161423854873
 20
-173.0179490398618
 30
0.0
 10
227.9400488389568
 20
-173.0770324274339
 30
0.0
 10
227.8590460313599
 20
-173.1399269518865
 30
0.0
 10
227.8094151245255
 20
-173.1823662218954
 30
0.0
 10
227.7478125108799
 20
-173.2350115872794
 30
0.0
 10
227.6921957506399
 20
-173.2825539049758
 30
0.0
 10
227.5253024062263
 20
-173.4252239217587
 30
0.0
 10
227.340537628983
 20
-173.5831600179106
 30
0.0
 10
227.1207190051773
 20
-173.771089976631
 30
0.0
 10
226.8712940920452
 20
-173.9987246608189
 30
0.0
 10
226.5823367082199
 20
-174.262425188368
 30
0.0
 10
226.2552248918954
 20
-174.5609857758585
 30
0.0
 10
225.0169068515691
 20
-175.7272367250027
 30
0.0
 10
223.4369214664932
 20
-177.3481326189659
 30
0.0
 10
221.6812792753631
 20
-179.4880321477821
 30
0.0
 10
221.0236105472289
 20
-180.2902226315225
 30
0.0
 10
220.3402973895764
 20
-181.1661381586473
 30
0.0
 10
219.6436990824589
 20
-182.1179103819879
 30
0.0
 10
218.9471223071882
 20
-183.0696826053285
 30
0.0
 10
218.2372603824524
 20
-184.0973761204253
 30
0.0
 10
217.5265587156921
 20
-185.203101048263
 30
0.0
 10
217.0527504272364
 20
-185.9402653547194
 30
0.0
 10
216.5785760973853
 20
-186.7121174663428
 30
0.0
 10
216.107696140092
 20
-187.5193464022304
 30
0.0
 10
215.6374621382022
 20
-188.3255202776257
 30
0.0
 10
215.1707808910315
 20
-189.1676308053014
 30
0.0
 10
214.7124755322594
 20
-190.0444937336846
 30
0.0
 10
214.2541701734872
 20
-190.9213781939146
 30
0.0
 10
213.8042407031136
 20
-191.8330150548521
 30
0.0
 10
213.3675748503582
 20
-192.7782846604643
 30
0.0
 10
213.0924193803206
 20
-193.3739201380172
 30
0.0
 10
212.8249507795846
 20
-193.9876208350209
 30
0.0
 10
212.5615301660437
 20
-194.6096543567295
 30
0.0
 10
211.1688287842846
 20
-195.2276614230898
 30
0.0
 10
209.8818057065356
 20
-196.9981605885
 30
0.0
 10
209.3391170402217
 20
-199.2844551435925
 30
0.0
 10
208.9371389926334
 20
-200.9778918293671
 30
0.0
 10
209.0289507873153
 20
-202.6008547806215
 30
0.0
 10
209.4945123784532
 20
-203.8093512131536
 30
0.0
 10
209.3466531865956
 20
-204.4089270186678
 30
0.0
 10
209.2059856315635
 20
-205.0145532731279
 30
0.0
 10
209.0746198343416
 20
-205.6269835911714
 30
0.0
 10
208.5675879063
 20
-207.990491348827
 30
0.0
 10
208.1873570239623
 20
-210.4451864776079
 30
0.0
 10
207.9646531326877
 20
-212.9568979366696
 30
0.0
 10
207.7943146927888
 20
-214.8400517244476
 30
0.0
 10
207.7136133310469
 20
-216.7522735053822
 30
0.0
 10
207.7218815602115
 20
-218.6764023975879
 30
0.0
 10
207.7356834739992
 20
-221.8832695300327
 30
0.0
 10
207.9966494570069
 20
-225.1232526428294
 30
0.0
 10
208.5017650506849
 20
-228.3170499442771
 30
0.0
 10
209.3032665153283
 20
-233.4332320583409
 30
0.0
 10
210.7142914986995
 20
-238.4224839356201
 30
0.0
 10
212.536510160082
 20
-243.1430183650498
 30
0.0
 10
212.765329095843
 20
-243.7326895210438
 30
0.0
 10
212.9997032480739
 20
-244.3190017089398
 30
0.0
 10
213.2395895530812
 20
-244.9016750147294
 30
0.0
 10
213.719340631249
 20
-246.0670216263088
 30
0.0
 10
214.2210541931353
 20
-247.2178557731565
 30
0.0
 10
214.7440627514898
 20
-248.3520027387475
 30
0.0
 10
215.0055885625138
 20
-248.9190654556196
 30
0.0
 10
215.2724112078464
 20
-249.4819725260627
 30
0.0
 10
215.544487623794
 20
-250.0404225042217
 30
0.0
 10
216.0300953642868
 20
-251.0371747554916
 30
0.0
 10
216.5349956394969
 20
-252.0173044210452
 30
0.0
 10
217.0535255737206
 20
-252.9842135326741
 30
0.0
 10
215.7682250437142
 20
-254.0144478056913
 30
0.0
 10
215.7641339928255
 20
-256.6111024003112
 30
0.0
 10
217.1050082193783
 20
-259.0184489980167
 30
0.0
 10
218.5101119448842
 20
-261.5410771033973
 30
0.0
 10
220.8675261899003
 20
-262.9123542976074
 30
0.0
 10
222.4247739447736
 20
-262.1413419280085
 30
0.0
 10
222.6373578680603
 20
-262.5108284188016
 30
0.0
 10
222.8493173677903
 20
-262.8792167854087
 30
0.0
 10
223.061406058601
 20
-263.2478635341772
 30
0.0
 10
223.2174042885424
 20
-263.5190140807131
 30
0.0
 10
223.3740054101938
 20
-263.7912196877414
 30
0.0
 10
223.5296806624335
 20
-264.0618319381078
 30
0.0
 10
223.5497698754819
 20
-264.0943450267499
 30
0.0
 10
223.568201136328
 20
-264.1306692522725
 30
0.0
 10
223.5877089895132
 20
-264.164517315415
 30
0.0
 10
223.6762479434842
 20
-264.318190105904
 30
0.0
 10
223.7606743147196
 20
-264.4812938452837
 30
0.0
 10
223.8431628197445
 20
-264.6489408043348
 30
0.0
 10
223.8431628197445
 20
-264.6489408043348
 30
0.0
 10
224.1486135982055
 20
-265.2567202434732
 30
0.0
 10
224.1486135982055
 20
-265.2567202434732
 30
0.0
 10
224.2165465748052
 20
-265.3912512221722
 30
0.0
 10
224.2841565737033
 20
-265.5251793091613
 30
0.0
 10
224.3520034229159
 20
-265.6595595649328
 30
0.0
 10
224.4890320958417
 20
-265.9309254299366
 30
0.0
 10
224.6261468961547
 20
-266.2024850815613
 30
0.0
 10
224.7628095276852
 20
-266.4731834593149
 30
0.0
 10
224.9611393684017
 20
-266.8789726437838
 30
0.0
 10
225.1549475212937
 20
-267.2851278696479
 30
0.0
 10
225.3439971360468
 20
-267.6914768821331
 30
0.0
 10
225.5330467507999
 20
-268.0978474264651
 30
0.0
 10
225.7173808911076
 20
-268.5044117574182
 30
0.0
 10
225.8967842385019
 20
-268.9110191520648
 30
0.0
 10
226.3048557987298
 20
-269.8358980987737
 30
0.0
 10
226.6842900027365
 20
-270.7608201091761
 30
0.0
 10
227.0392640287979
 20
-271.6842994858441
 30
0.0
 10
227.6206669556274
 20
-273.196782531256
 30
0.0
 10
228.1311439791543
 20
-274.7050238028515
 30
0.0
 10
228.5546323416786
 20
-276.2003029026839
 30
0.0
 10
228.8969671736785
 20
-277.4041915200044
 30
0.0
 10
229.1846111148501
 20
-278.5994243349183
 30
0.0
 10
229.4176072288869
 20
-279.7807906405041
 30
0.0
 10
229.4630178937519
 20
-280.011095273693
 30
0.0
 10
229.5019474727352
 20
-280.2396558272926
 30
0.0
 10
229.5432024911711
 20
-280.4688623362956
 30
0.0
 10
228.8906368107244
 20
-281.6032892158948
 30
0.0
 10
228.5591970931966
 20
-283.2243143009387
 30
0.0
 10
228.7227745332056
 20
-284.9878156161445
 30
0.0
 10
228.870353811055
 20
-286.5787391793862
 30
0.0
 10
229.392027394909
 20
-287.983153885795
 30
0.0
 10
230.1167462939248
 20
-288.9735757741108
 30
0.0
 10
230.0796038582245
 20
-289.6858062019926
 30
0.0
 10
230.0208219165074
 20
-290.3856127542808
 30
0.0
 10
229.9416923795806
 20
-291.071725052015
 30
0.0
 10
229.8280042285673
 20
-292.0573884021918
 30
0.0
 10
229.674266842538
 20
-293.015749370648
 30
0.0
 10
229.4817936641465
 20
-293.9400900211873
 30
0.0
 10
229.3000864091463
 20
-294.8124312617461
 30
0.0
 10
229.0848756005522
 20
-295.6534651970828
 30
0.0
 10
228.8459582286501
 20
-296.4646990564719
 30
0.0
 10
228.7325284597982
 20
-296.8497746043357
 30
0.0
 10
228.6154598088401
 20
-297.2302638688348
 30
0.0
 10
228.4909411388951
 20
-297.6002886557974
 30
0.0
 10
228.2975420910919
 20
-298.1750167101242
 30
0.0
 10
228.0914607855336
 20
-298.7310551214435
 30
0.0
 10
227.874893470592
 20
-299.2668320649403
 30
0.0
 10
227.6583046238038
 20
-299.8025874765902
 30
0.0
 10
227.4312297676322
 20
-300.3180814204175
 30
0.0
 10
227.1958220867558
 20
-300.8116990079134
 30
0.0
 10
227.0790764134993
 20
-301.0592075866819
 30
0.0
 10
226.9608450428149
 20
-301.3015269903756
 30
0.0
 10
226.8414940160978
 20
-301.5386356871479
 30
0.0
 10
226.6028134945103
 20
-302.0128530806925
 30
0.0
 10
226.3596974124856
 20
-302.4661630510111
 30
0.0
 10
226.11518176042
 20
-302.8981995567082
 30
0.0
 10
225.992945466234
 20
-303.1142070436334
 30
0.0
 10
225.8703215988059
 20
-303.3248961644032
 30
0.0
 10
225.7477623269181
 20
-303.530223855324
 30
0.0
 10
225.5026437831426
 20
-303.9408361734723
 30
0.0
 10
225.2576544304478
 20
-304.329981240378
 30
0.0
 10
225.0158733229236
 20
-304.6972068872589
 30
0.0
 10
224.7740922153994
 20
-305.0644325341397
 30
0.0
 10
224.5355408848926
 20
-305.4097387609957
 30
0.0
 10
224.3032553217996
 20
-305.7327595264314
 30
0.0
 10
224.1870048810192
 20
-305.8944206320767
 30
0.0
 10
224.072326265054
 20
-306.0505480530989
 30
0.0
 10
223.9595855152992
 20
-306.2011202576511
 30
0.0
 10
223.7341040157896
 20
-306.5022861986023
 30
0.0
 10
223.5163309174282
 20
-306.7813174010607
 30
0.0
 10
223.3088715736758
 20
-307.0383861198007
 30
0.0
 10
223.1014122299235
 20
-307.295433306694
 30
0.0
 10
222.9043097044736
 20
-307.5305395417155
 30
0.0
 10
222.7201478189402
 20
-307.7437694204057
 30
0.0
 10
222.5843679931278
 20
-307.9010164974605
 30
0.0
 10
222.4584497531419
 20
-308.0422869442025
 30
0.0
 10
222.3378283474646
 20
-308.1758274579495
 30
0.0
 10
222.213072827205
 20
-308.3139757869081
 30
0.0
 10
222.0941955011171
 20
-308.4435329090002
 30
0.0
 10
221.9879573690907
 20
-308.5564674453761
 30
0.0
 10
221.9846629965329
 20
-308.5599556045549
 30
0.0
 10
221.9819715156851
 20
-308.5627116809431
 30
0.0
 10
221.9786986749741
 20
-308.5661783082751
 30
0.0
 10
221.8449859064528
 20
-308.7079439874932
 30
0.0
 10
221.7268191313088
 20
-308.8300295587517
 30
0.0
 10
221.6264807253009
 20
-308.9321551080426
 30
0.0
 10
221.5730171497391
 20
-308.9865660848628
 30
0.0
 10
221.5241829212357
 20
-309.0358309503018
 30
0.0
 10
221.4810115684362
 20
-309.079131494182
 30
0.0
 10
221.3968866430557
 20
-309.1635148017239
 30
0.0
 10
221.3328078670301
 20
-309.2268399631121
 30
0.0
 10
221.290885361344
 20
-309.2695591471293
 30
0.0
 10
221.248941323811
 20
-309.3122783311463
 30
0.0
 10
221.2291750884644
 20
-309.3343269422519
 30
0.0
 10
221.2336321807485
 20
-309.3360710218413
 30
0.0
 10
221.2358284291203
 20
-309.3369753594062
 30
0.0
 10
221.2440966582849
 20
-309.3327551174368
 30
0.0
 10
221.2585875911697
 20
-309.3236040825541
 30
0.0
 10
221.1141734947974
 20
-309.4152436224617
 30
0.0
 10
220.9779199683558
 20
-309.5147207545983
 30
0.0
 10
220.8473723813116
 20
-309.6191717433417
 30
0.0
 10
220.8066771908921
 20
-309.6517278956774
 30
0.0
 10
220.7697931373531
 20
-309.6873415702561
 30
0.0
 10
220.7304759851277
 20
-309.721060442318
 30
0.0
 10
220.642905964262
 20
-309.7961204602029
 30
0.0
 10
220.5569077682115
 20
-309.8722570704269
 30
0.0
 10
220.4761848746227
 20
-309.952743113701
 30
0.0
 10
220.4351021109611
 20
-309.9937612818223
 30
0.0
 10
220.396947678462
 20
-310.0366527206137
 30
0.0
 10
220.3576735899301
 20
-310.0789843313887
 30
0.0
 10
220.2838839510054
 20
-310.1583722504769
 30
0.0
 10
220.2124197515333
 20
-310.2390520803721
 30
0.0
 10
220.1450250711031
 20
-310.3227894325105
 30
0.0
 10
220.10984203346
 20
-310.3665852088667
 30
0.0
 10
220.0762092887852
 20
-310.4110484724732
 30
0.0
 10
220.0428133944251
 20
-310.4559423730154
 30
0.0
 10
219.9763876471001
 20
-310.5450411550027
 30
0.0
 10
219.913643845575
 20
-310.6359486121196
 30
0.0
 10
219.854259012148
 20
-310.7290738494553
 30
0.0
 10
219.827494926597
 20
-310.771147078069
 30
0.0
 10
219.8007523728927
 20
-310.8129834563679
 30
0.0
 10
219.7754093892293
 20
-310.855810299619
 30
0.0
 10
219.7129670335592
 20
-310.9611440940805
 30
0.0
 10
219.6559076395847
 20
-311.0687817961477
 30
0.0
 10
219.6023148729423
 20
-311.1782712370384
 30
0.0
 10
219.5862521152423
 20
-311.2111934307692
 30
0.0
 10
219.5688543830418
 20
-311.2434266054032
 30
0.0
 10
219.5536098355196
 20
-311.2766933086826
 30
0.0
 10
219.4896602505746
 20
-311.4157244433592
 30
0.0
 10
219.4323640062856
 20
-311.5572532722626
 30
0.0
 10
219.3827115676044
 20
-311.7014951138607
 30
0.0
 10
219.3809459561682
 20
-311.7066627570886
 30
0.0
 10
219.3786420485625
 20
-311.7116366136954
 30
0.0
 10
219.3768764371263
 20
-311.7168257887701
 30
0.0
 10
218.9449260588163
 20
-312.9863650069314
 30
0.0
 10
219.0686695822771
 20
-314.4324223050182
 30
0.0
 10
219.8429763244338
 20
-315.6529119762083
 30
0.0
 10
221.1998271812994
 20
-317.7916272534514
 30
0.0
 10
224.0335904726917
 20
-318.425460227197
 30
0.0
 10
226.1723272817816
 20
-317.0685878384846
 30
0.0
 10
226.2880394263924
 20
-316.9944967537049
 30
0.0
 10
226.9013740820008
 20
-316.6750287429884
 30
0.0
 10
227.9034662312728
 20
-316.030860482787
 30
0.0
 10
228.9041372786572
 20
-315.3859170761015
 30
0.0
 10
230.2960635139321
 20
-314.4154552097534
 30
0.0
 10
231.9314072770866
 20
-313.019114945888
 30
0.0
 10
233.5641672186272
 20
-311.6231191915712
 30
0.0
 10
235.4426485956532
 20
-309.7972831799291
 30
0.0
 10
237.348518481787
 20
-307.4475342723677
 30
0.0
 10
239.2592545652937
 20
-305.1051277245592
 30
0.0
 10
241.1600859992803
 20
-302.2106230933927
 30
0.0
 10
242.8022984215586
 20
-298.7969425725989
 30
0.0
 10
244.4443385890625
 20
-295.3875684211618
 30
0.0
 10
245.8001343854358
 20
-291.4510515967879
 30
0.0
 10
246.6504054830423
 20
-287.1746976346408
 30
0.0
 10
247.508083535942
 20
-282.9003246023977
 30
0.0
 10
247.8568133264364
 20
-278.3023925085494
 30
0.0
 10
247.6917717208462
 20
-273.6250724956129
 30
0.0
 10
247.531876226637
 20
-268.9441566642635
 30
0.0
 10
246.8696212151381
 20
-264.1897311079977
 30
0.0
 10
245.8424444643641
 20
-259.4977263755553
 30
0.0
 10
245.7070952754873
 20
-258.9140410729668
 30
0.0
 10
245.5715092362959
 20
-258.3292361143456
 30
0.0
 10
245.4356432830964
 20
-257.7434191589257
 30
0.0
 10
245.4356432830964
 20
-257.7434191589257
 30
0.0
 10
245.2292820635299
 20
-256.8618622879438
 30
0.0
 10
245.2292820635299
 20
-256.8618622879438
 30
0.0
 10
245.1621672971079
 20
-256.568490875528
 30
0.0
 10
245.0927055593866
 20
-256.2737198930714
 30
0.0
 10
245.000463127769
 20
-255.96820451907
 30
0.0
 10
244.648912665346
 20
-254.7534423191242
 30
0.0
 10
244.2963286742775
 20
-253.535041237072
 30
0.0
 10
243.9430126004183
 20
-252.3142931837205
 30
0.0
 10
243.9430126004183
 20
-252.3142931837205
 30
0.0
 10
243.8073404338398
 20
-251.8547605096817
 30
0.0
 10
243.8073404338398
 20
-251.8547605096817
 30
0.0
 10
243.8073404338398
 20
-251.8547605096817
 30
0.0
 10
243.7391706069255
 20
-251.6247788541945
 30
0.0
 10
243.7391706069255
 20
-251.6247788541945
 30
0.0
 10
243.7391706069255
 20
-251.6247788541945
 30
0.0
 10
243.6788599040868
 20
-251.4339205643117
 30
0.0
 10
243.6788599040868
 20
-251.4339205643117
 30
0.0
 10
243.6788599040868
 20
-251.4339205643117
 30
0.0
 10
243.4375524971918
 20
-250.6715209334259
 30
0.0
 10
243.4375524971918
 20
-250.6715209334259
 30
0.0
 10
243.4375524971918
 20
-250.6715209334259
 30
0.0
 10
242.9544855146194
 20
-249.1450852512988
 30
0.0
 10
242.9544855146194
 20
-249.1450852512988
 30
0.0
 10
242.9544855146194
 20
-249.1450852512988
 30
0.0
 10
242.4709663632646
 20
-247.6171638717437
 30
0.0
 10
242.4709663632646
 20
-247.6171638717437
 30
0.0
 10
242.4709663632646
 20
-247.6171638717437
 30
0.0
 10
242.4407356503816
 20
-247.5216485994152
 30
0.0
 10
242.4407356503816
 20
-247.5216485994152
 30
0.0
 10
242.4407356503816
 20
-247.5216485994152
 30
0.0
 10
242.4256202939401
 20
-247.4738909632509
 30
0.0
 10
242.4256202939401
 20
-247.4738909632509
 30
0.0
 10
242.4452142745124
 20
-247.5111410581852
 30
0.0
 10
242.1981578645264
 20
-246.9734047166312
 30
0.0
 10
242.2970967004935
 20
-247.1814669520935
 30
0.0
 10
242.2970967004935
 20
-247.1814669520935
 30
0.0
 10
242.2484777904579
 20
-247.0144874802928
 30
0.0
 10
242.2484777904579
 20
-247.0144874802928
 30
0.0
 10
242.2484777904579
 20
-247.0144874802928
 30
0.0
 10
242.1512615022335
 20
-246.6808299825464
 30
0.0
 10
242.1512615022335
 20
-246.6808299825464
 30
0.0
 10
242.1512615022335
 20
-246.6808299825464
 30
0.0
 10
241.956699734704
 20
-246.0149576207879
 30
0.0
 10
241.956699734704
 20
-246.0149576207879
 30
0.0
 10
240.8368499153767
 20
-242.4789977421146
 30
0.0
 10
240.1219495384938
 20
-238.9650003471598
 30
0.0
 10
239.6981812619613
 20
-235.6367797262471
 30
0.0
 10
239.2821859821174
 20
-232.30591068818
 30
0.0
 10
239.2252127155301
 20
-229.1562752044839
 30
0.0
 10
239.5117370006689
 20
-226.3239330149794
 30
0.0
 10
239.7942132986126
 20
-223.4878227522878
 30
0.0
 10
240.4125002789811
 20
-220.9752715512015
 30
0.0
 10
241.2340263611325
 20
-218.8105673348915
 30
0.0
 10
242.0550787426546
 20
-216.6431716377338
 30
0.0
 10
243.0733628407074
 20
-214.8140412535339
 30
0.0
 10
244.1527543199297
 20
-213.2692819697947
 30
0.0
 10
246.302946071508
 20
-210.1969242842021
 30
0.0
 10
248.7115630481737
 20
-208.2171355680629
 30
0.0
 10
250.3537324067584
 20
-207.1343851207425
 30
0.0
 10
250.3537324067584
 20
-207.1343851207425
 30
0.0
 10
243.4984230280469
 20
-192.5123663526966
 30
0.0
 10
243.4984230280469
 20
-192.5123663526966
 30
0.0
 10
243.4984230280469
 20
-192.5123663526966
 30
0.0
 10
246.9338937777848
 20
-190.9019564681165
 30
0.0
 10
246.9338937777848
 20
-190.9019564681165
 30
0.0
 10
246.9338937777848
 20
-190.9019564681165
 30
0.0
 10
248.22387027903
 20
-184.5685359917268
 30
0.0
 10
248.22387027903
 20
-184.5685359917268
 30
0.0
 10
248.22387027903
 20
-184.5685359917268
 30
0.0
 10
249.7942919636474
 20
-184.7756077622371
 30
0.0
 10
249.7942919636474
 20
-184.7756077622371
 30
0.0
 10
249.7942919636474
 20
-184.7756077622371
 30
0.0
 10
248.2404893042593
 20
-189.0712973227951
 30
0.0
 10
248.2404893042593
 20
-189.0712973227951
 30
0.0
 10
248.2404893042593
 20
-189.0712973227951
 30
0.0
 10
248.7080102934545
 20
-190.0697075262673
 30
0.0
 10
248.7080102934545
 20
-190.0697075262673
 30
0.0
 10
248.7080102934545
 20
-190.0697075262673
 30
0.0
 10
251.4393035260074
 20
-188.7891870662467
 30
0.0
 10
251.4393035260074
 20
-188.7891870662467
 30
0.0
 10
253.7135402469015
 20
-187.7237482237396
 30
0.0
 10
253.7876313316812
 20
-185.4400805539547
 30
0.0
 10
252.7214173426899
 20
-183.1659299604477
 30
0.0
  0
SPLINE
  5
79
330
1F
100
AcDbEntity
  8
Layer 1
 62
     1
420
 16711680
370
    50
100
AcDbSpline
210
0.0
220
0.0
230
1.0
 70
    11
 71
     3
 72
    17
 73
    13
 74
     0
 42
0.0000000001
 43
0.0000000001
 12
1.0
 22
0.0
 32
0.0
 13
1.0
 23
0.0
 33
0.0
 40
0.0
 40
0.0
 40
0.0
 40
0.0
 40
1.0
 40
1.0
 40
1.0
 40
2.0
 40
2.0
 40
2.0
 40
3.0
 40
3.0
 40
3.0
 40
4.0
 40
4.0
 40
4.0
 40
4.0
 10
140.15309899994
 20
-154.8771822107824
 30
0.0
 10
140.1530989996544
 20
-158.0525349877664
 30
0.0
 10
137.5789148984296
 20
-160.6270719313351
 30
0.0
 10
134.4032094238931
 20
-160.6270719310499
 30
0.0
 10
131.2275392271334
 20
-160.627071930765
 30
0.0
 10
128.6533551263707
 20
-158.0525349867336
 30
0.0
 10
128.6533551266562
 20
-154.8771822097496
 30
0.0
 10
128.6533551269411
 20
-151.7015119327654
 30
0.0
 10
131.2275392281659
 20
-149.126974989196
 30
0.0
 10
134.4032094249256
 20
-149.1269749894809
 30
0.0
 10
137.5789148994621
 20
-149.1269749897662
 30
0.0
 10
140.1530990002249
 20
-151.7015119337981
 30
0.0
 10
140.15309899994
 20
-154.8771822107824
 30
0.0
  0
SPLINE
  5
7A
330
1F
100
AcDbEntity
  8
Layer 1
 62
     1
420
 16711680
370
    50
100
AcDbSpline
210
0.0
220
0.0
230
1.0
 70
    11
 71
     3
 72
    17
 73
    13
 74
     0
 42
0.0000000001
 43
0.0000000001
 12
1.0
 22
0.0
 32
0.0
 13
1.0
 23
0.0
 33
0.0
 40
0.0
 40
0.0
 40
0.0
 40
0.0
 40
1.0
 40
1.0
 40
1.0
 40
2.0
 40
2.0
 40
2.0
 40
3.0
 40
3.0
 40
3.0
 40
4.0
 40
4.0
 40
4.0
 40
4.0
 10
120.2364748736017
 20
-162.87718242909
 30
0.0
 10
120.2364748733168
 20
-166.052535206074
 30
0.0
 10
117.6622907720917
 20
-168.627072149643
 30
0.0
 10
114.4865852975552
 20
-168.6270721493581
 30
0.0
 10
111.3109151007955
 20
-168.6270721490729
 30
0.0
 10
108.7367310000327
 20
-166.0525352050415
 30
0.0
 10
108.736731000318
 20
-162.8771824280575
 30
0.0
 10
108.7367310006029
 20
-159.7015121510732
 30
0.0
 10
111.3109151018277
 20
-157.1269752075039
 30
0.0
 10
114.4865852985873
 20
-157.1269752077891
 30
0.0
 10
117.6622907731239
 20
-157.1269752080741
 30
0.0
 10
120.2364748738866
 20
-159.7015121521057
 30
0.0
 10
120.2364748736017
 20
-162.87718242909
 30
0.0
  0
SPLINE
  5
7B
330
1F
100
AcDbEntity
  8
Layer 1
 62
     1
420
 16711680
370
    50
100
AcDbSpline
210
0.0
220
0.0
230
1.0
 70
    11
 71
     3
 72
    17
 73
    13
 74
     0
 42
0.0000000001
 43
0.0000000001
 12
1.0
 22
0.0
 32
0.0
 13
1.0
 23
0.0
 33
0.0
 40
0.0
 40
0.0
 40
0.0
 40
0.0
 40
1.0
 40
1.0
 40
1.0
 40
2.0
 40
2.0
 40
2.0
 40
3.0
 40
3.0
 40
3.0
 40
4.0
 40
4.0
 40
4.0
 40
4.0
 10
100.319850897714
 20
-162.8771824268742
 30
0.0
 10
100.3198508974288
 20
-166.0525352038582
 30
0.0
 10
97.74566679620368
 20
-168.6270721474272
 30
0.0
 10
94.56996132166711
 20
-168.627072147142
 30
0.0
 10
91.39429112490744
 20
-168.6270721468568
 30
0.0
 10
88.820107024145
 20
-166.0525352028257
 30
0.0
 10
88.82010702443024
 20
-162.8771824258417
 30
0.0
 10
88.82010702471516
 20
-159.7015121488575
 30
0.0
 10
91.39429112593993
 20
-157.1269752052878
 30
0.0
 10
94.56996132269961
 20
-157.126975205573
 30
0.0
 10
97.74566679723617
 20
-157.1269752058583
 30
0.0
 10
100.3198508979989
 20
-159.70151214989
 30
0.0
 10
100.319850897714
 20
-162.8771824268742
 30
0.0
  0
SPLINE
  5
7C
330
1F
100
AcDbEntity
  8
Layer 1
 62
     1
420
 16711680
370
    50
100
AcDbSpline
210
0.0
220
0.0
230
1.0
 70
    11
 71
     3
 72
    17
 73
    13
 74
     0
 42
0.0000000001
 43
0.0000000001
 12
1.0
 22
0.0
 32
0.0
 13
1.0
 23
0.0
 33
0.0
 40
0.0
 40
0.0
 40
0.0
 40
0.0
 40
1.0
 40
1.0
 40
1.0
 40
2.0
 40
2.0
 40
2.0
 40
3.0
 40
3.0
 40
3.0
 40
4.0
 40
4.0
 40
4.0
 40
4.0
 10
80.40322695067289
 20
-154.8771822041344
 30
0.0
 10
80.40322695038765
 20
-158.0525349811184
 30
0.0
 10
77.82904284916256
 20
-160.6270719246874
 30
0.0
 10
74.65333737462599
 20
-160.6270719244019
 30
0.0
 10
71.47766717786631
 20
-160.627071924117
 30
0.0
 10
68.90348307710389
 20
-158.0525349800859
 30
0.0
 10
68.90348307738913
 20
-154.8771822031019
 30
0.0
 10
68.90348307767404
 20
-151.7015119261177
 30
0.0
 10
71.47766717889881
 20
-149.126974982548
 30
0.0
 10
74.6533373756585
 20
-149.1269749828329
 30
0.0
 10
77.82904285019505
 20
-149.1269749831185
 30
0.0
 10
80.4032269509578
 20
-151.7015119271502
 30
0.0
 10
80.40322695067289
 20
-154.8771822041344
 30
0.0
  0
POLYLINE
  5
7D
330
1F
100
AcDbEntity
  8
Layer 1
 62
     7
420
 16777215
370
    50
100
AcDb2dPolyline
 66
     1
 10
0.0
 20
0.0
 30
0.0
  0
VERTEX
  5
7E
330
7D
100
AcDbEntity
  8
Layer 1
 62
     7
420
 16777215
370
    50
100
AcDbVertex
100
AcDb2dVertex
 10
560.8503128438437
 20
-198.1353543104108
 30
0.0
  0
VERTEX
  5
7F
330
7D
100
AcDbEntity
  8
Layer 1
 62
     7
420
 16777215
370
    50
100
AcDbVertex
100
AcDb2dVertex
 10
560.8503128438437
 20
-95.48406191664006
 30
0.0
  0
VERTEX
  5
80
330
7D
100
AcDbEntity
  8
Layer 1
 62
     7
420
 16777215
370
    50
100
AcDbVertex
100
AcDb2dVertex
 10
538.3501358475155
 20
-95.48406191664006
 30
0.0
  0
VERTEX
  5
81
330
7D
100
AcDbEntity
  8
Layer 1
 62
     7
420
 16777215
370
    50
100
AcDbVertex
100
AcDb2dVertex
 10
538.3501358475155
 20
-99.48457138965252
 30
0.0
  0
VERTEX
  5
82
330
7D
100
AcDbEntity
  8
Layer 1
 62
     7
420
 16777215
370
    50
100
AcDbVertex
100
AcDb2dVertex
 10
528.3488944627545
 20
-99.48457138965252
 30
0.0
  0
VERTEX
  5
83
330
7D
100
AcDbEntity
  8
Layer 1
 62
     7
420
 16777215
370
    50
100
AcDbVertex
100
AcDb2dVertex
 10
528.3488944627545
 20
-95.48406191664006
 30
0.0
  0
VERTEX
  5
84
330
7D
100
AcDbEntity
  8
Layer 1
 62
     7
420
 16777215
370
    50
100
AcDbVertex
100
AcDb2dVertex
 10
505.8487389982733
 20
-95.48406191664006
 30
0.0
  0
VERTEX
  5
85
330
7D
100
AcDbEntity
  8
Layer 1
 62
     7
420
 16777215
370
    50
100
AcDbVertex
100
AcDb2dVertex
 10
505.8487389982733
 20
-124.1366842171483
 30
0.0
  0
VERTEX
  5
86
330
7D
100
AcDbEntity
  8
Layer 1
 62
     7
420
 16777215
370
    50
100
AcDbVertex
100
AcDb2dVertex
 10
516.7495594097734
 20
-124.1366842171483
 30
0.0
  0
VERTEX
  5
87
330
7D
100
AcDbEntity
  8
Layer 1
 62
     7
420
 16777215
370
    50
100
AcDbVertex
100
AcDb2dVertex
 10
516.7495594097734
 20
-122.8349333561999
 30
0.0
  0
VERTEX
  5
88
330
7D
100
AcDbEntity
  8
Layer 1
 62
     7
420
 16777215
370
    50
100
AcDbVertex
100
AcDb2dVertex
 10
518.9508892974609
 20
-122.8349333561999
 30
0.0
  0
VERTEX
  5
89
330
7D
100
AcDbEntity
  8
Layer 1
 62
     7
420
 16777215
370
    50
100
AcDbVertex
100
AcDb2dVertex
 10
518.9508892974609
 20
-124.1366842171483
 30
0.0
  0
VERTEX
  5
8A
330
7D
100
AcDbEntity
  8
Layer 1
 62
     7
420
 16777215
370
    50
100
AcDbVertex
100
AcDb2dVertex
 10
529.8482000179353
 20
-124.1366842171483
 30
0.0
  0
VERTEX
  5
8B
330
7D
100
AcDbEntity
  8
Layer 1
 62
     7
420
 16777215
370
    50
100
AcDbVertex
100
AcDb2dVertex
 10
529.8482000179353
 20
-126.8354212973656
 30
0.0
  0
VERTEX
  5
8C
330
7D
100
AcDbEntity
  8
Layer 1
 62
     7
420
 16777215
370
    50
100
AcDbVertex
100
AcDb2dVertex
 10
518.9508892974609
 20
-126.8354212973656
 30
0.0
  0
VERTEX
  5
8D
330
7D
100
AcDbEntity
  8
Layer 1
 62
     7
420
 16777215
370
    50
100
AcDbVertex
100
AcDb2dVertex
 10
518.9508892974609
 20
-128.1336624672884
 30
0.0
  0
VERTEX
  5
8E
330
7D
100
AcDbEntity
  8
Layer 1
 62
     7
420
 16777215
370
    50
100
AcDbVertex
100
AcDb2dVertex
 10
516.7495594097734
 20
-128.1336624672884
 30
0.0
  0
VERTEX
  5
8F
330
7D
100
AcDbEntity
  8
Layer 1
 62
     7
420
 16777215
370
    50
100
AcDbVertex
100
AcDb2dVertex
 10
516.7495594097734
 20
-126.8354212973656
 30
0.0
  0
VERTEX
  5
90
330
7D
100
AcDbEntity
  8
Layer 1
 62
     7
420
 16777215
370
    50
100
AcDbVertex
100
AcDb2dVertex
 10
505.8487389982733
 20
-126.8354212973656
 30
0.0
  0
VERTEX
  5
91
330
7D
100
AcDbEntity
  8
Layer 1
 62
     7
420
 16777215
370
    50
100
AcDbVertex
100
AcDb2dVertex
 10
505.8487389982733
 20
-272.1340028718265
 30
0.0
  0
VERTEX
  5
92
330
7D
100
AcDbEntity
  8
Layer 1
 62
     7
420
 16777215
370
    50
100
AcDbVertex
100
AcDb2dVertex
 10
516.7495594097734
 20
-272.1340028718265
 30
0.0
  0
VERTEX
  5
93
330
7D
100
AcDbEntity
  8
Layer 1
 62
     7
420
 16777215
370
    50
100
AcDbVertex
100
AcDb2dVertex
 10
516.7495594097734
 20
-270.8357832337505
 30
0.0
  0
VERTEX
  5
94
330
7D
100
AcDbEntity
  8
Layer 1
 62
     7
420
 16777215
370
    50
100
AcDbVertex
100
AcDb2dVertex
 10
518.9508892974609
 20
-270.8357832337505
 30
0.0
  0
VERTEX
  5
95
330
7D
100
AcDbEntity
  8
Layer 1
 62
     7
420
 16777215
370
    50
100
AcDbVertex
100
AcDb2dVertex
 10
518.9508892974609
 20
-272.1340028718265
 30
0.0
  0
VERTEX
  5
96
330
7D
100
AcDbEntity
  8
Layer 1
 62
     7
420
 16777215
370
    50
100
AcDbVertex
100
AcDb2dVertex
 10
529.8482000179353
 20
-272.1340028718265
 30
0.0
  0
VERTEX
  5
97
330
7D
100
AcDbEntity
  8
Layer 1
 62
     7
420
 16777215
370
    50
100
AcDbVertex
100
AcDb2dVertex
 10
529.8482000179353
 20
-274.8362927067629
 30
0.0
  0
VERTEX
  5
98
330
7D
100
AcDbEntity
  8
Layer 1
 62
     7
420
 16777215
370
    50
100
AcDbVertex
100
AcDb2dVertex
 10
518.9508892974609
 20
-274.8362927067629
 30
0.0
  0
VERTEX
  5
99
330
7D
100
AcDbEntity
  8
Layer 1
 62
     7
420
 16777215
370
    50
100
AcDbVertex
100
AcDb2dVertex
 10
518.9508892974609
 20
-276.134512344839
 30
0.0
  0
VERTEX
  5
9A
330
7D
100
AcDbEntity
  8
Layer 1
 62
     7
420
 16777215
370
    50
100
AcDbVertex
100
AcDb2dVertex
 10
516.7495594097734
 20
-276.134512344839
 30
0.0
  0
VERTEX
  5
9B
330
7D
100
AcDbEntity
  8
Layer 1
 62
     7
420
 16777215
370
    50
100
AcDbVertex
100
AcDb2dVertex
 10
516.7495594097734
 20
-274.8362927067629
 30
0.0
  0
VERTEX
  5
9C
330
7D
100
AcDbEntity
  8
Layer 1
 62
     7
420
 16777215
370
    50
100
AcDbVertex
100
AcDb2dVertex
 10
505.8487389982733
 20
-274.8362927067629
 30
0.0
  0
VERTEX
  5
9D
330
7D
100
AcDbEntity
  8
Layer 1
 62
     7
420
 16777215
370
    50
100
AcDbVertex
100
AcDb2dVertex
 10
505.8487389982733
 20
-303.4853837843988
 30
0.0
  0
VERTEX
  5
9E
330
7D
100
AcDbEntity
  8
Layer 1
 62
     7
420
 16777215
370
    50
100
AcDbVertex
100
AcDb2dVertex
 10
528.3488944627545
 20
-303.4853837843988
 30
0.0
  0
VERTEX
  5
9F
330
7D
100
AcDbEntity
  8
Layer 1
 62
     7
420
 16777215
370
    50
100
AcDbVertex
100
AcDb2dVertex
 10
528.3488944627545
 20
-299.4848743113864
 30
0.0
  0
VERTEX
  5
A0
330
7D
100
AcDbEntity
  8
Layer 1
 62
     7
420
 16777215
370
    50
100
AcDbVertex
100
AcDb2dVertex
 10
538.3501358475155
 20
-299.4848743113864
 30
0.0
  0
VERTEX
  5
A1
330
7D
100
AcDbEntity
  8
Layer 1
 62
     7
420
 16777215
370
    50
100
AcDbVertex
100
AcDb2dVertex
 10
538.3501358475155
 20
-303.4853837843988
 30
0.0
  0
VERTEX
  5
A2
330
7D
100
AcDbEntity
  8
Layer 1
 62
     7
420
 16777215
370
    50
100
AcDbVertex
100
AcDb2dVertex
 10
560.8503128438437
 20
-303.4853837843988
 30
0.0
  0
VERTEX
  5
A3
330
7D
100
AcDbEntity
  8
Layer 1
 62
     7
420
 16777215
370
    50
100
AcDbVertex
100
AcDb2dVertex
 10
560.8503128438437
 20
-200.8340913906281
 30
0.0
  0
VERTEX
  5
A4
330
7D
100
AcDbEntity
  8
Layer 1
 62
     7
420
 16777215
370
    50
100
AcDbVertex
100
AcDb2dVertex
 10
536.8508302923348
 20
-200.8340913906281
 30
0.0
  0
VERTEX
  5
A5
330
7D
100
AcDbEntity
  8
Layer 1
 62
     7
420
 16777215
370
    50
100
AcDbVertex
100
AcDb2dVertex
 10
536.8508302923348
 20
-198.1353543104108
 30
0.0
  0
VERTEX
  5
A6
330
7D
100
AcDbEntity
  8
Layer 1
 62
     7
420
 16777215
370
    50
100
AcDbVertex
100
AcDb2dVertex
 10
560.8503128438437
 20
-198.1353543104108
 30
0.0
  0
SEQEND
  5
A7
330
7D
100
AcDbEntity
  8
Layer 1
 62
     7
420
 16777215
370
    50
  0
SPLINE
  5
A8
330
1F
100
AcDbEntity
  8
Layer 1
 62
     7
420
 16777215
370
    53
100
AcDbSpline
210
0.0
220
0.0
230
1.0
 70
    11
 71
     3
 72
    17
 73
    13
 74
     0
 42
0.0000000001
 43
0.0000000001
 12
1.0
 22
0.0
 32
0.0
 13
1.0
 23
0.0
 33
0.0
 40
0.0
 40
0.0
 40
0.0
 40
0.0
 40
1.0
 40
1.0
 40
1.0
 40
2.0
 40
2.0
 40
2.0
 40
3.0
 40
3.0
 40
3.0
 40
4.0
 40
4.0
 40
4.0
 40
4.0
 10
538.4205151538672
 20
-252.441721509054
 30
0.0
 10
538.4205151538672
 20
-255.2435248216243
 30
0.0
 10
536.149331129547
 20
-257.5147333809838
 30
0.0
 10
533.351527028332
 20
-257.5147333809838
 30
0.0
 10
530.5497237157624
 20
-257.5147333809838
 30
0.0
 10
528.2785151564029
 20
-255.2435248216243
 30
0.0
 10
528.2785151564029
 20
-252.441721509054
 30
0.0
 10
528.2785151564029
 20
-249.6439174078396
 30
0.0
 10
530.5497237157624
 20
-247.3727088484801
 30
0.0
 10
533.351527028332
 20
-247.3727088484801
 30
0.0
 10
536.149331129547
 20
-247.3727088484801
 30
0.0
 10
538.4205151538672
 20
-249.6439174078396
 30
0.0
 10
538.4205151538672
 20
-252.441721509054
 30
0.0
  0
POLYLINE
  5
A9
330
1F
100
AcDbEntity
  8
Layer 1
 62
     7
420
 16777215
370
    50
100
AcDb2dPolyline
 66
     1
 10
0.0
 20
0.0
 30
0.0
  0
VERTEX
  5
AA
330
A9
100
AcDbEntity
  8
Layer 1
 62
     7
420
 16777215
370
    50
100
AcDbVertex
100
AcDb2dVertex
 10
469.8466477008529
 20
-198.1353543102536
 30
0.0
  0
VERTEX
  5
AB
330
A9
100
AcDbEntity
  8
Layer 1
 62
     7
420
 16777215
370
    50
100
AcDbVertex
100
AcDb2dVertex
 10
469.8466477007323
 20
-200.8340913904709
 30
0.0
  0
VERTEX
  5
AC
330
A9
100
AcDbEntity
  8
Layer 1
 62
     7
420
 16777215
370
    50
100
AcDbVertex
100
AcDb2dVertex
 10
445.8471651492234
 20
-200.8340913893934
 30
0.0
  0
VERTEX
  5
AD
330
A9
100
AcDbEntity
  8
Layer 1
 62
     7
420
 16777215
370
    50
100
AcDbVertex
100
AcDb2dVertex
 10
445.8471651446148
 20
-303.4853837831642
 30
0.0
  0
VERTEX
  5
AE
330
A9
100
AcDbEntity
  8
Layer 1
 62
     7
420
 16777215
370
    50
100
AcDbVertex
100
AcDb2dVertex
 10
468.3473421409428
 20
-303.4853837841742
 30
0.0
  0
VERTEX
  5
AF
330
A9
100
AcDbEntity
  8
Layer 1
 62
     7
420
 16777215
370
    50
100
AcDbVertex
100
AcDb2dVertex
 10
468.3473421411219
 20
-299.4848743111618
 30
0.0
  0
VERTEX
  5
B0
330
A9
100
AcDbEntity
  8
Layer 1
 62
     7
420
 16777215
370
    50
100
AcDbVertex
100
AcDb2dVertex
 10
478.3485835258829
 20
-299.484874311611
 30
0.0
  0
VERTEX
  5
B1
330
A9
100
AcDbEntity
  8
Layer 1
 62
     7
420
 16777215
370
    50
100
AcDbVertex
100
AcDb2dVertex
 10
478.3485835257038
 20
-303.4853837846234
 30
0.0
  0
VERTEX
  5
B2
330
A9
100
AcDbEntity
  8
Layer 1
 62
     7
420
 16777215
370
    50
100
AcDbVertex
100
AcDb2dVertex
 10
500.8487389901851
 20
-303.4853837856335
 30
0.0
  0
VERTEX
  5
B3
330
A9
100
AcDbEntity
  8
Layer 1
 62
     7
420
 16777215
370
    50
100
AcDbVertex
100
AcDb2dVertex
 10
500.8487389914711
 20
-274.8362927079976
 30
0.0
  0
VERTEX
  5
B4
330
A9
100
AcDbEntity
  8
Layer 1
 62
     7
420
 16777215
370
    50
100
AcDbVertex
100
AcDb2dVertex
 10
489.947918579971
 20
-274.8362927075079
 30
0.0
  0
VERTEX
  5
B5
330
A9
100
AcDbEntity
  8
Layer 1
 62
     7
420
 16777215
370
    50
100
AcDbVertex
100
AcDb2dVertex
 10
489.9479185799127
 20
-276.134512345584
 30
0.0
  0
VERTEX
  5
B6
330
A9
100
AcDbEntity
  8
Layer 1
 62
     7
420
 16777215
370
    50
100
AcDbVertex
100
AcDb2dVertex
 10
487.7465886922251
 20
-276.1345123454852
 30
0.0
  0
VERTEX
  5
B7
330
A9
100
AcDbEntity
  8
Layer 1
 62
     7
420
 16777215
370
    50
100
AcDbVertex
100
AcDb2dVertex
 10
487.7465886922835
 20
-274.8362927074091
 30
0.0
  0
VERTEX
  5
B8
330
A9
100
AcDbEntity
  8
Layer 1
 62
     7
420
 16777215
370
    50
100
AcDbVertex
100
AcDb2dVertex
 10
476.849277971809
 20
-274.8362927069202
 30
0.0
  0
VERTEX
  5
B9
330
A9
100
AcDbEntity
  8
Layer 1
 62
     7
420
 16777215
370
    50
100
AcDbVertex
100
AcDb2dVertex
 10
476.8492779719303
 20
-272.1340028719837
 30
0.0
  0
VERTEX
  5
BA
330
A9
100
AcDbEntity
  8
Layer 1
 62
     7
420
 16777215
370
    50
100
AcDbVertex
100
AcDb2dVertex
 10
487.7465886924048
 20
-272.1340028724727
 30
0.0
  0
VERTEX
  5
BB
330
A9
100
AcDbEntity
  8
Layer 1
 62
     7
420
 16777215
370
    50
100
AcDbVertex
100
AcDb2dVertex
 10
487.7465886924632
 20
-270.8357832343967
 30
0.0
  0
VERTEX
  5
BC
330
A9
100
AcDbEntity
  8
Layer 1
 62
     7
420
 16777215
370
    50
100
AcDbVertex
100
AcDb2dVertex
 10
489.9479185801507
 20
-270.8357832344955
 30
0.0
  0
VERTEX
  5
BD
330
A9
100
AcDbEntity
  8
Layer 1
 62
     7
420
 16777215
370
    50
100
AcDbVertex
100
AcDb2dVertex
 10
489.9479185800923
 20
-272.1340028725716
 30
0.0
  0
VERTEX
  5
BE
330
A9
100
AcDbEntity
  8
Layer 1
 62
     7
420
 16777215
370
    50
100
AcDbVertex
100
AcDb2dVertex
 10
500.8487389915924
 20
-272.1340028730611
 30
0.0
  0
VERTEX
  5
BF
330
A9
100
AcDbEntity
  8
Layer 1
 62
     7
420
 16777215
370
    50
100
AcDbVertex
100
AcDb2dVertex
 10
500.8487389981159
 20
-126.8354212986002
 30
0.0
  0
VERTEX
  5
C0
330
A9
100
AcDbEntity
  8
Layer 1
 62
     7
420
 16777215
370
    50
100
AcDbVertex
100
AcDb2dVertex
 10
489.9479185866158
 20
-126.8354212981109
 30
0.0
  0
VERTEX
  5
C1
330
A9
100
AcDbEntity
  8
Layer 1
 62
     7
420
 16777215
370
    50
100
AcDbVertex
100
AcDb2dVertex
 10
489.9479185865574
 20
-128.1336624680337
 30
0.0
  0
VERTEX
  5
C2
330
A9
100
AcDbEntity
  8
Layer 1
 62
     7
420
 16777215
370
    50
100
AcDbVertex
100
AcDb2dVertex
 10
487.7465886988699
 20
-128.1336624679349
 30
0.0
  0
VERTEX
  5
C3
330
A9
100
AcDbEntity
  8
Layer 1
 62
     7
420
 16777215
370
    50
100
AcDbVertex
100
AcDb2dVertex
 10
487.7465886989283
 20
-126.8354212980121
 30
0.0
  0
VERTEX
  5
C4
330
A9
100
AcDbEntity
  8
Layer 1
 62
     7
420
 16777215
370
    50
100
AcDbVertex
100
AcDb2dVertex
 10
476.8492779784539
 20
-126.8354212975228
 30
0.0
  0
VERTEX
  5
C5
330
A9
100
AcDbEntity
  8
Layer 1
 62
     7
420
 16777215
370
    50
100
AcDbVertex
100
AcDb2dVertex
 10
476.8492779785751
 20
-124.1366842173056
 30
0.0
  0
VERTEX
  5
C6
330
A9
100
AcDbEntity
  8
Layer 1
 62
     7
420
 16777215
370
    50
100
AcDbVertex
100
AcDb2dVertex
 10
487.7465886990496
 20
-124.1366842177949
 30
0.0
  0
VERTEX
  5
C7
330
A9
100
AcDbEntity
  8
Layer 1
 62
     7
420
 16777215
370
    50
100
AcDbVertex
100
AcDb2dVertex
 10
487.746588699108
 20
-122.8349333568464
 30
0.0
  0
VERTEX
  5
C8
330
A9
100
AcDbEntity
  8
Layer 1
 62
     7
420
 16777215
370
    50
100
AcDbVertex
100
AcDb2dVertex
 10
489.9479185867955
 20
-122.8349333569452
 30
0.0
  0
VERTEX
  5
C9
330
A9
100
AcDbEntity
  8
Layer 1
 62
     7
420
 16777215
370
    50
100
AcDbVertex
100
AcDb2dVertex
 10
489.9479185867371
 20
-124.1366842178937
 30
0.0
  0
VERTEX
  5
CA
330
A9
100
AcDbEntity
  8
Layer 1
 62
     7
420
 16777215
370
    50
100
AcDbVertex
100
AcDb2dVertex
 10
500.8487389982371
 20
-124.136684218383
 30
0.0
  0
VERTEX
  5
CB
330
A9
100
AcDbEntity
  8
Layer 1
 62
     7
420
 16777215
370
    50
100
AcDbVertex
100
AcDb2dVertex
 10
500.8487389995231
 20
-95.48406191787468
 30
0.0
  0
VERTEX
  5
CC
330
A9
100
AcDbEntity
  8
Layer 1
 62
     7
420
 16777215
370
    50
100
AcDbVertex
100
AcDb2dVertex
 10
478.3485835350418
 20
-95.48406191686465
 30
0.0
  0
VERTEX
  5
CD
330
A9
100
AcDbEntity
  8
Layer 1
 62
     7
420
 16777215
370
    50
100
AcDbVertex
100
AcDb2dVertex
 10
478.3485835348621
 20
-99.4845713898771
 30
0.0
  0
VERTEX
  5
CE
330
A9
100
AcDbEntity
  8
Layer 1
 62
     7
420
 16777215
370
    50
100
AcDbVertex
100
AcDb2dVertex
 10
468.3473421501012
 20
-99.48457138942793
 30
0.0
  0
VERTEX
  5
CF
330
A9
100
AcDbEntity
  8
Layer 1
 62
     7
420
 16777215
370
    50
100
AcDbVertex
100
AcDb2dVertex
 10
468.3473421502808
 20
-95.48406191641546
 30
0.0
  0
VERTEX
  5
D0
330
A9
100
AcDbEntity
  8
Layer 1
 62
     7
420
 16777215
370
    50
100
AcDbVertex
100
AcDb2dVertex
 10
445.8471651539527
 20
-95.48406191540543
 30
0.0
  0
VERTEX
  5
D1
330
A9
100
AcDbEntity
  8
Layer 1
 62
     7
420
 16777215
370
    50
100
AcDbVertex
100
AcDb2dVertex
 10
445.8471651493441
 20
-198.1353543091762
 30
0.0
  0
VERTEX
  5
D2
330
A9
100
AcDbEntity
  8
Layer 1
 62
     7
420
 16777215
370
    50
100
AcDbVertex
100
AcDb2dVertex
 10
469.8466477008529
 20
-198.1353543102536
 30
0.0
  0
SEQEND
  5
D3
330
A9
100
AcDbEntity
  8
Layer 1
 62
     7
420
 16777215
370
    50
  0
SPLINE
  5
D4
330
1F
100
AcDbEntity
  8
Layer 1
 62
     7
420
 16777215
370
    53
100
AcDbSpline
210
0.0
220
0.0
230
1.0
 70
    11
 71
     3
 72
    17
 73
    13
 74
     0
 42
0.0000000001
 43
0.0000000001
 12
1.0
 22
0.0
 32
0.0
 13
1.0
 23
0.0
 33
0.0
 40
0.0
 40
0.0
 40
0.0
 40
0.0
 40
1.0
 40
1.0
 40
1.0
 40
2.0
 40
2.0
 40
2.0
 40
3.0
 40
3.0
 40
3.0
 40
4.0
 40
4.0
 40
4.0
 40
4.0
 10
473.345950962645
 20
-247.3727088484801
 30
0.0
 10
476.1477542752153
 20
-247.3727088486059
 30
0.0
 10
478.4189628344728
 20
-249.6439174080668
 30
0.0
 10
478.418962834347
 20
-252.4417215092818
 30
0.0
 10
478.4189628342212
 20
-255.2435248218515
 30
0.0
 10
476.1477542747597
 20
-257.5147333811096
 30
0.0
 10
473.3459509621894
 20
-257.5147333809838
 30
0.0
 10
470.548146860975
 20
-257.514733380858
 30
0.0
 10
468.2769628367569
 20
-255.2435248213971
 30
0.0
 10
468.2769628368827
 20
-252.4417215088268
 30
0.0
 10
468.2769628370085
 20
-249.6439174076125
 30
0.0
 10
470.5481468614306
 20
-247.3727088483544
 30
0.0
 10
473.345950962645
 20
-247.3727088484801
 30
0.0
  0
POLYLINE
  5
D5
330
1F
100
AcDbEntity
  8
Layer 1
 62
     7
420
 16777215
370
    50
100
AcDb2dPolyline
 66
     1
 10
0.0
 20
0.0
 30
0.0
  0
VERTEX
  5
D6
330
D5
100
AcDbEntity
  8
Layer 1
 62
     7
420
 16777215
370
    50
100
AcDbVertex
100
AcDb2dVertex
 10
108.4031038293259
 20
-94.78535233244834
 30
0.0
  0
VERTEX
  5
D7
330
D5
100
AcDbEntity
  8
Layer 1
 62
     7
420
 16777215
370
    50
100
AcDbVertex
100
AcDb2dVertex
 10
98.40310383182559
 20
-94.78535233244834
 30
0.0
  0
VERTEX
  5
D8
330
D5
100
AcDbEntity
  8
Layer 1
 62
     7
420
 16777215
370
    50
100
AcDbVertex
100
AcDb2dVertex
 10
98.40310383182559
 20
-90.78535233344829
 30
0.0
  0
VERTEX
  5
D9
330
D5
100
AcDbEntity
  8
Layer 1
 62
     7
420
 16777215
370
    50
100
AcDbVertex
100
AcDb2dVertex
 10
108.4031038293259
 20
-90.78535233344829
 30
0.0
  0
VERTEX
  5
DA
330
D5
100
AcDbEntity
  8
Layer 1
 62
     7
420
 16777215
370
    50
100
AcDbVertex
100
AcDb2dVertex
 10
108.4031038293259
 20
-94.78535233244834
 30
0.0
  0
SEQEND
  5
DB
330
D5
100
AcDbEntity
  8
Layer 1
 62
     7
420
 16777215
370
    50
  0
POLYLINE
  5
DC
330
1F
100
AcDbEntity
  8
Layer 1
 62
     7
420
 16777215
370
    50
100
AcDb2dPolyline
 66
     1
 10
0.0
 20
0.0
 30
0.0
  0
VERTEX
  5
DD
330
DC
100
AcDbEntity
  8
Layer 1
 62
     7
420
 16777215
370
    50
100
AcDbVertex
100
AcDb2dVertex
 10
108.4031051805856
 20
-298.7853522035729
 30
0.0
  0
VERTEX
  5
DE
330
DC
100
AcDbEntity
  8
Layer 1
 62
     7
420
 16777215
370
    50
100
AcDbVertex
100
AcDb2dVertex
 10
98.40310518308591
 20
-298.7853522035729
 30
0.0
  0
VERTEX
  5
DF
330
DC
100
AcDbEntity
  8
Layer 1
 62
     7
420
 16777215
370
    50
100
AcDbVertex
100
AcDb2dVertex
 10
98.40310518308591
 20
-294.7853522045731
 30
0.0
  0
VERTEX
  5
E0
330
DC
100
AcDbEntity
  8
Layer 1
 62
     7
420
 16777215
370
    50
100
AcDbVertex
100
AcDb2dVertex
 10
108.4031051805856
 20
-294.7853522045731
 30
0.0
  0
VERTEX
  5
E1
330
DC
100
AcDbEntity
  8
Layer 1
 62
     7
420
 16777215
370
    50
100
AcDbVertex
100
AcDb2dVertex
 10
108.4031051805856
 20
-298.7853522035729
 30
0.0
  0
SEQEND
  5
E2
330
DC
100
AcDbEntity
  8
Layer 1
 62
     7
420
 16777215
370
    50
  0
SPLINE
  5
E3
330
1F
100
AcDbEntity
  8
Layer 1
 62
     7
420
 16777215
370
    50
100
AcDbSpline
210
0.0
220
0.0
230
1.0
 70
    11
 71
     3
 72
    17
 73
    13
 74
     0
 42
0.0000000001
 43
0.0000000001
 12
1.0
 22
0.0
 32
0.0
 13
1.0
 23
0.0
 33
0.0
 40
0.0
 40
0.0
 40
0.0
 40
0.0
 40
1.0
 40
1.0
 40
1.0
 40
2.0
 40
2.0
 40
2.0
 40
3.0
 40
3.0
 40
3.0
 40
4.0
 40
4.0
 40
4.0
 40
4.0
 10
64.25316966904163
 20
-120.7851109626592
 30
0.0
 10
64.25316966904163
 20
-121.530695374703
 30
0.0
 10
63.64875408142278
 20
-122.1351109623219
 30
0.0
 10
62.90316966937927
 20
-122.1351109623219
 30
0.0
 10
62.15758525733577
 20
-122.1351109623219
 30
0.0
 10
61.55316966971628
 20
-121.530695374703
 30
0.0
 10
61.55316966971628
 20
-120.7851109626592
 30
0.0
 10
61.55316966971628
 20
-120.0395265506157
 30
0.0
 10
62.15758525733577
 20
-119.4351109629969
 30
0.0
 10
62.90316966937927
 20
-119.4351109629969
 30
0.0
 10
63.64875408142278
 20
-119.4351109629969
 30
0.0
 10
64.25316966904163
 20
-120.0395265506157
 30
0.0
 10
64.25316966904163
 20
-120.7851109626592
 30
0.0
  0
SPLINE
  5
E4
330
1F
100
AcDbEntity
  8
Layer 1
 62
     7
420
 16777215
370
    50
100
AcDbSpline
210
0.0
220
0.0
230
1.0
 70
    11
 71
     3
 72
    17
 73
    13
 74
     0
 42
0.0000000001
 43
0.0000000001
 12
1.0
 22
0.0
 32
0.0
 13
1.0
 23
0.0
 33
0.0
 40
0.0
 40
0.0
 40
0.0
 40
0.0
 40
1.0
 40
1.0
 40
1.0
 40
2.0
 40
2.0
 40
2.0
 40
3.0
 40
3.0
 40
3.0
 40
4.0
 40
4.0
 40
4.0
 40
4.0
 10
64.25316966904163
 20
-268.7851102722348
 30
0.0
 10
64.25316966904163
 20
-269.530694684279
 30
0.0
 10
63.64875408142278
 20
-270.1351102718978
 30
0.0
 10
62.90316966937927
 20
-270.1351102718978
 30
0.0
 10
62.15758525733577
 20
-270.1351102718978
 30
0.0
 10
61.55316966971628
 20
-269.530694684279
 30
0.0
 10
61.55316966971628
 20
-268.7851102722348
 30
0.0
 10
61.55316966971628
 20
-268.0395258601913
 30
0.0
 10
62.15758525733577
 20
-267.4351102725724
 30
0.0
 10
62.90316966937927
 20
-267.4351102725724
 30
0.0
 10
63.64875408142278
 20
-267.4351102725724
 30
0.0
 10
64.25316966904163
 20
-268.0395258601913
 30
0.0
 10
64.25316966904163
 20
-268.7851102722348
 30
0.0
  0
SPLINE
  5
E5
330
1F
100
AcDbEntity
  8
Layer 1
 62
     7
420
 16777215
370
    50
100
AcDbSpline
210
0.0
220
0.0
230
1.0
 70
    11
 71
     3
 72
    17
 73
    13
 74
     0
 42
0.0000000001
 43
0.0000000001
 12
1.0
 22
0.0
 32
0.0
 13
1.0
 23
0.0
 33
0.0
 40
0.0
 40
0.0
 40
0.0
 40
0.0
 40
1.0
 40
1.0
 40
1.0
 40
2.0
 40
2.0
 40
2.0
 40
3.0
 40
3.0
 40
3.0
 40
4.0
 40
4.0
 40
4.0
 40
4.0
 10
142.5530431614852
 20
-120.7851109644168
 30
0.0
 10
142.5530431614519
 20
-121.5306953764607
 30
0.0
 10
143.1574587490438
 20
-122.1351109641068
 30
0.0
 10
143.9030431610873
 20
-122.1351109641402
 30
0.0
 10
144.6486275731308
 20
-122.1351109641735
 30
0.0
 10
145.2530431607766
 20
-121.5306953765819
 30
0.0
 10
145.2530431608106
 20
-120.7851109645381
 30
0.0
 10
145.253043160844
 20
-120.0395265524946
 30
0.0
 10
144.648627573252
 20
-119.4351109648485
 30
0.0
 10
143.9030431612086
 20
-119.4351109648151
 30
0.0
 10
143.157458749165
 20
-119.4351109647818
 30
0.0
 10
142.5530431615186
 20
-120.0395265523733
 30
0.0
 10
142.5530431614852
 20
-120.7851109644168
 30
0.0
  0
SPLINE
  5
E6
330
1F
100
AcDbEntity
  8
Layer 1
 62
     7
420
 16777215
370
    50
100
AcDbSpline
210
0.0
220
0.0
230
1.0
 70
    11
 71
     3
 72
    17
 73
    13
 74
     0
 42
0.0000000001
 43
0.0000000001
 12
1.0
 22
0.0
 32
0.0
 13
1.0
 23
0.0
 33
0.0
 40
0.0
 40
0.0
 40
0.0
 40
0.0
 40
1.0
 40
1.0
 40
1.0
 40
2.0
 40
2.0
 40
2.0
 40
3.0
 40
3.0
 40
3.0
 40
4.0
 40
4.0
 40
4.0
 40
4.0
 10
142.5530431548404
 20
-268.785110273993
 30
0.0
 10
142.5530431548071
 20
-269.5306946860366
 30
0.0
 10
143.157458742399
 20
-270.135110273683
 30
0.0
 10
143.9030431544425
 20
-270.1351102737164
 30
0.0
 10
144.648627566486
 20
-270.1351102737497
 30
0.0
 10
145.2530431541324
 20
-269.5306946861585
 30
0.0
 10
145.2530431541658
 20
-268.7851102741137
 30
0.0
 10
145.2530431541992
 20
-268.0395258620701
 30
0.0
 10
144.6486275666072
 20
-267.4351102744237
 30
0.0
 10
143.9030431545638
 20
-267.4351102743904
 30
0.0
 10
143.1574587425202
 20
-267.435110274357
 30
0.0
 10
142.5530431548744
 20
-268.0395258619495
 30
0.0
 10
142.5530431548404
 20
-268.785110273993
 30
0.0
  0
SPLINE
  5
E7
330
1F
100
AcDbEntity
  8
Layer 1
 62
     3
420
    65280
370
    50
100
AcDbSpline
210
0.0
220
0.0
230
1.0
 70
    11
 71
     3
 72
    17
 73
    13
 74
     0
 42
0.0000000001
 43
0.0000000001
 12
1.0
 22
0.0
 32
0.0
 13
1.0
 23
0.0
 33
0.0
 40
0.0
 40
0.0
 40
0.0
 40
0.0
 40
1.0
 40
1.0
 40
1.0
 40
2.0
 40
2.0
 40
2.0
 40
3.0
 40
3.0
 40
3.0
 40
4.0
 40
4.0
 40
4.0
 40
4.0
 10
62.90313719130547
 20
-123.6351752078065
 30
0.0
 10
61.33165688570875
 20
-123.6351752078065
 30
0.0
 10
60.05318195113254
 20
-122.3567002732303
 30
0.0
 10
60.05318195113254
 20
-120.7850477128593
 30
0.0
 10
60.05318195113254
 20
-119.2135674072626
 30
0.0
 10
61.33165688570875
 20
-117.9350924726864
 30
0.0
 10
62.90313719130547
 20
-117.9350924726864
 30
0.0
 10
64.47461749690218
 20
-117.9350924726864
 30
0.0
 10
65.7530924314784
 20
-119.2135674072626
 30
0.0
 10
65.7530924314784
 20
-120.7850477128593
 30
0.0
 10
65.7530924314784
 20
-122.3567002732303
 30
0.0
 10
64.47461749690218
 20
-123.6351752078065
 30
0.0
 10
62.90313719130547
 20
-123.6351752078065
 30
0.0
  0
SPLINE
  5
E8
330
1F
100
AcDbEntity
  8
Layer 1
 62
     3
420
    65280
370
    50
100
AcDbSpline
210
0.0
220
0.0
230
1.0
 70
    11
 71
     3
 72
    17
 73
    13
 74
     0
 42
0.0000000001
 43
0.0000000001
 12
1.0
 22
0.0
 32
0.0
 13
1.0
 23
0.0
 33
0.0
 40
0.0
 40
0.0
 40
0.0
 40
0.0
 40
1.0
 40
1.0
 40
1.0
 40
2.0
 40
2.0
 40
2.0
 40
3.0
 40
3.0
 40
3.0
 40
4.0
 40
4.0
 40
4.0
 40
4.0
 10
62.90313719130547
 20
-271.6350992159454
 30
0.0
 10
61.33165688570875
 20
-271.6350992159454
 30
0.0
 10
60.05318195113254
 20
-270.3566242813692
 30
0.0
 10
60.05318195113254
 20
-268.7849717209982
 30
0.0
 10
60.05318195113254
 20
-267.2136636701758
 30
0.0
 10
61.33165688570875
 20
-265.9351887355995
 30
0.0
 10
62.90313719130547
 20
-265.9351887355995
 30
0.0
 10
64.47461749690218
 20
-265.9351887355995
 30
0.0
 10
65.7530924314784
 20
-267.2136636701758
 30
0.0
 10
65.7530924314784
 20
-268.7849717209982
 30
0.0
 10
65.7530924314784
 20
-270.3566242813692
 30
0.0
 10
64.47461749690218
 20
-271.6350992159454
 30
0.0
 10
62.90313719130547
 20
-271.6350992159454
 30
0.0
  0
SPLINE
  5
E9
330
1F
100
AcDbEntity
  8
Layer 1
 62
     3
420
    65280
370
    50
100
AcDbSpline
210
0.0
220
0.0
230
1.0
 70
    11
 71
     3
 72
    17
 73
    13
 74
     0
 42
0.0000000001
 43
0.0000000001
 12
1.0
 22
0.0
 32
0.0
 13
1.0
 23
0.0
 33
0.0
 40
0.0
 40
0.0
 40
0.0
 40
0.0
 40
1.0
 40
1.0
 40
1.0
 40
2.0
 40
2.0
 40
2.0
 40
3.0
 40
3.0
 40
3.0
 40
4.0
 40
4.0
 40
4.0
 40
4.0
 10
143.9030164570798
 20
-123.6351752078065
 30
0.0
 10
142.3315361514831
 20
-123.6351752078065
 30
0.0
 10
141.0530612169069
 20
-122.3567002732303
 30
0.0
 10
141.0530612169069
 20
-120.7850477128593
 30
0.0
 10
141.0530612169069
 20
-119.2135674072626
 30
0.0
 10
142.3315361514831
 20
-117.9350924726864
 30
0.0
 10
143.9030164570798
 20
-117.9350924726864
 30
0.0
 10
145.4744967626765
 20
-117.9350924726864
 30
0.0
 10
146.7529716972527
 20
-119.2135674072626
 30
0.0
 10
146.7529716972527
 20
-120.7850477128593
 30
0.0
 10
146.7529716972527
 20
-122.3567002732303
 30
0.0
 10
145.4744967626765
 20
-123.6351752078065
 30
0.0
 10
143.9030164570798
 20
-123.6351752078065
 30
0.0
  0
SPLINE
  5
EA
330
1F
100
AcDbEntity
  8
Layer 1
 62
     3
420
    65280
370
    50
100
AcDbSpline
210
0.0
220
0.0
230
1.0
 70
    11
 71
     3
 72
    17
 73
    13
 74
     0
 42
0.0000000001
 43
0.0000000001
 12
1.0
 22
0.0
 32
0.0
 13
1.0
 23
0.0
 33
0.0
 40
0.0
 40
0.0
 40
0.0
 40
0.0
 40
1.0
 40
1.0
 40
1.0
 40
2.0
 40
2.0
 40
2.0
 40
3.0
 40
3.0
 40
3.0
 40
4.0
 40
4.0
 40
4.0
 40
4.0
 10
143.9030164570798
 20
-271.6350992159454
 30
0.0
 10
142.3315361514831
 20
-271.6350992159454
 30
0.0
 10
141.0530612169069
 20
-270.3566242813692
 30
0.0
 10
141.0530612169069
 20
-268.7849717209982
 30
0.0
 10
141.0530612169069
 20
-267.2136636701758
 30
0.0
 10
142.3315361514831
 20
-265.9351887355995
 30
0.0
 10
143.9030164570798
 20
-265.9351887355995
 30
0.0
 10
145.4744967626765
 20
-265.9351887355995
 30
0.0
 10
146.7529716972527
 20
-267.2136636701758
 30
0.0
 10
146.7529716972527
 20
-268.7849717209982
 30
0.0
 10
146.7529716972527
 20
-270.3566242813692
 30
0.0
 10
145.4744967626765
 20
-271.6350992159454
 30
0.0
 10
143.9030164570798
 20
-271.6350992159454
 30
0.0
  0
INSERT
  5
EC
330
1F
100
AcDbEntity
  8
Layer 1
100
AcDbBlockReference
  2
block 4
 10
0.0
 20
0.0
 30
0.0
  0
POLYLINE
  5
158
330
1F
100
AcDbEntity
  8
Layer 1
 62
     1
420
 16711680
370
    50
100
AcDb2dPolyline
 66
     1
 10
0.0
 20
0.0
 30
0.0
  0
VERTEX
  5
159
330
158
100
AcDbEntity
  8
Layer 1
 62
     1
420
 16711680
370
    50
100
AcDbVertex
100
AcDb2dVertex
 10
38.84724120122569
 20
-82.27937322661965
 30
0.0
  0
VERTEX
  5
15A
330
158
100
AcDbEntity
  8
Layer 1
 62
     1
420
 16711680
370
    50
100
AcDbVertex
100
AcDb2dVertex
 10
38.84724120122569
 20
-59.98479680575033
 30
0.0
  0
VERTEX
  5
15B
330
158
100
AcDbEntity
  8
Layer 1
 62
     1
420
 16711680
370
    50
100
AcDbVertex
100
AcDb2dVertex
 10
56.31337093734398
 20
-59.98479680575033
 30
0.0
  0
SEQEND
  5
15C
330
158
100
AcDbEntity
  8
Layer 1
 62
     1
420
 16711680
370
    50
  0
POLYLINE
  5
15D
330
1F
100
AcDbEntity
  8
Layer 1
 62
     1
420
 16711680
370
    50
100
AcDb2dPolyline
 66
     1
 10
0.0
 20
0.0
 30
0.0
  0
VERTEX
  5
15E
330
15D
100
AcDbEntity
  8
Layer 1
 62
     1
420
 16711680
370
    50
100
AcDbVertex
100
AcDb2dVertex
 10
38.84724120122569
 20
-317.7829145596403
 30
0.0
  0
VERTEX
  5
15F
330
15D
100
AcDbEntity
  8
Layer 1
 62
     1
420
 16711680
370
    50
100
AcDbVertex
100
AcDb2dVertex
 10
38.84724120122569
 20
-82.27937322661965
 30
0.0
  0
SEQEND
  5
160
330
15D
100
AcDbEntity
  8
Layer 1
 62
     1
420
 16711680
370
    50
  0
POLYLINE
  5
161
330
1F
100
AcDbEntity
  8
Layer 1
 62
     1
420
 16711680
370
    50
100
AcDb2dPolyline
 66
     1
 10
0.0
 20
0.0
 30
0.0
  0
VERTEX
  5
162
330
161
100
AcDbEntity
  8
Layer 1
 62
     1
420
 16711680
370
    50
100
AcDbVertex
100
AcDb2dVertex
 10
61.55318807316025
 20
-338.9846488952886
 30
0.0
  0
VERTEX
  5
163
330
161
100
AcDbEntity
  8
Layer 1
 62
     1
420
 16711680
370
    50
100
AcDbVertex
100
AcDb2dVertex
 10
38.84724120122569
 20
-338.9846488952886
 30
0.0
  0
VERTEX
  5
164
330
161
100
AcDbEntity
  8
Layer 1
 62
     1
420
 16711680
370
    50
100
AcDbVertex
100
AcDb2dVertex
 10
38.84724120122569
 20
-317.7829145596403
 30
0.0
  0
SEQEND
  5
165
330
161
100
AcDbEntity
  8
Layer 1
 62
     1
420
 16711680
370
    50
  0
POLYLINE
  5
166
330
1F
100
AcDbEntity
  8
Layer 1
 62
     1
420
 16711680
370
    50
100
AcDb2dPolyline
 66
     1
 10
0.0
 20
0.0
 30
0.0
  0
VERTEX
  5
167
330
166
100
AcDbEntity
  8
Layer 1
 62
     1
420
 16711680
370
    50
100
AcDbVertex
100
AcDb2dVertex
 10
56.31337093734398
 20
-59.98479680575033
 30
0.0
  0
VERTEX
  5
168
330
166
100
AcDbEntity
  8
Layer 1
 62
     1
420
 16711680
370
    50
100
AcDbVertex
100
AcDb2dVertex
 10
440.8471651458646
 20
-59.98479680575033
 30
0.0
  0
VERTEX
  5
169
330
166
100
AcDbEntity
  8
Layer 1
 62
     1
420
 16711680
370
    50
100
AcDbVertex
100
AcDb2dVertex
 10
440.8471651458646
 20
-338.9846488952886
 30
0.0
  0
VERTEX
  5
16A
330
166
100
AcDbEntity
  8
Layer 1
 62
     1
420
 16711680
370
    50
100
AcDbVertex
100
AcDb2dVertex
 10
61.55318807316025
 20
-338.9846488952886
 30
0.0
  0
SEQEND
  5
16B
330
166
100
AcDbEntity
  8
Layer 1
 62
     1
420
 16711680
370
    50
  0
ENDSEC
  0
SECTION
  2
OBJECTS
  0
DICTIONARY
  5
C
330
0
100
AcDbDictionary
281
     1
  3
ACAD_GROUP
350
D
  3
ACAD_LAYOUT
350
1A
  3
ACAD_MATERIAL
350
3B
  3
ACAD_MLEADERSTYLE
350
16D
  3
ACAD_MLINESTYLE
350
17
  3
ACAD_PLOTSETTINGS
350
19
  3
ACAD_PLOTSTYLENAME
350
E
  3
ACAD_TABLESTYLE
350
16C
  3
ACAD_VISUALSTYLE
350
2A
  0
SUN
  5
3F
330
29
100
AcDbSun
 90
        1
290
     0
 63
     7
421
 16777215
 40
1.0
291
     1
 91
  2455826
 92
 54000000
292
     0
 70
     2
 71
   256
280
     1
  0
DICTIONARY
  5
D
102
{ACAD_REACTORS
330
C
102
}
330
C
100
AcDbDictionary
281
     1
  0
DICTIONARY
  5
1A
102
{ACAD_REACTORS
330
C
102
}
330
C
100
AcDbDictionary
281
     1
  3
Layout1
350
1E
  3
Layout2
350
26
  3
Model
350
22
  0
DICTIONARY
  5
3B
102
{ACAD_REACTORS
330
C
102
}
330
C
100
AcDbDictionary
281
     1
  3
ByBlock
350
3D
  3
ByLayer
350
3C
  3
Global
350
3E
  0
DICTIONARY
  5
16D
102
{ACAD_REACTORS
330
C
102
}
330
C
100
AcDbDictionary
281
     1
  0
DICTIONARY
  5
17
102
{ACAD_REACTORS
330
C
102
}
330
C
100
AcDbDictionary
281
     1
  3
Standard
350
18
  0
DICTIONARY
  5
19
102
{ACAD_REACTORS
330
C
102
}
330
C
100
AcDbDictionary
281
     1
  0
ACDBDICTIONARYWDFLT
  5
E
102
{ACAD_REACTORS
330
C
102
}
330
C
100
AcDbDictionary
281
     1
  3
Normal
350
F
100
AcDbDictionaryWithDefault
340
F
  0
DICTIONARY
  5
16C
102
{ACAD_REACTORS
330
C
102
}
330
C
100
AcDbDictionary
281
     1
  0
DICTIONARY
  5
2A
102
{ACAD_REACTORS
330
C
102
}
330
C
100
AcDbDictionary
281
     1
  3
2dWireframe
350
2F
  3
3D Hidden
350
31
  3
3dWireframe
350
30
  3
Basic
350
32
  3
Brighten
350
36
  3
ColorChange
350
3A
  3
Conceptual
350
34
  3
Dim
350
35
  3
Facepattern
350
39
  3
Flat
350
2B
  3
FlatWithEdges
350
2C
  3
Gouraud
350
2D
  3
GouraudWithEdges
350
2E
  3
Linepattern
350
38
  3
Realistic
350
33
  3
Thicken
350
37
  0
LAYOUT
  5
1E
102
{ACAD_REACTORS
330
1A
102
}
330
1A
100
AcDbPlotSettings
  1

  2
none_device
  4

  6

 40
0.0
 41
0.0
 42
0.0
 43
0.0
 44
0.0
 45
0.0
 46
0.0
 47
0.0
 48
0.0
 49
0.0
140
0.0
141
0.0
142
1.0
143
1.0
 70
   688
 72
     0
 73
     0
 74
     5
  7

 75
    16
 76
     0
 77
     2
 78
   300
147
1.0
148
0.0
149
0.0
100
AcDbLayout
  1
Layout1
 70
     1
 71
     1
 10
0.0
 20
0.0
 11
12.0
 21
9.0
 12
0.0
 22
0.0
 32
0.0
 14
1.000000000000000E+20
 24
1.000000000000000E+20
 34
1.000000000000000E+20
 15
-1.000000000000000E+20
 25
-1.000000000000000E+20
 35
-1.000000000000000E+20
146
0.0
 13
0.0
 23
0.0
 33
0.0
 16
1.0
 26
0.0
 36
0.0
 17
0.0
 27
1.0
 37
0.0
 76
     0
330
1B
  0
LAYOUT
  5
26
102
{ACAD_REACTORS
330
1A
102
}
330
1A
100
AcDbPlotSettings
  1

  2
none_device
  4

  6

 40
0.0
 41
0.0
 42
0.0
 43
0.0
 44
0.0
 45
0.0
 46
0.0
 47
0.0
 48
0.0
 49
0.0
140
0.0
141
0.0
142
1.0
143
1.0
 70
   688
 72
     0
 73
     0
 74
     5
  7

 75
    16
 76
     0
 77
     2
 78
   300
147
1.0
148
0.0
149
0.0
100
AcDbLayout
  1
Layout2
 70
     1
 71
     2
 10
0.0
 20
0.0
 11
0.0
 21
0.0
 12
0.0
 22
0.0
 32
0.0
 14
0.0
 24
0.0
 34
0.0
 15
0.0
 25
0.0
 35
0.0
146
0.0
 13
0.0
 23
0.0
 33
0.0
 16
1.0
 26
0.0
 36
0.0
 17
0.0
 27
1.0
 37
0.0
 76
     0
330
23
  0
LAYOUT
  5
22
102
{ACAD_REACTORS
330
1A
102
}
330
1A
100
AcDbPlotSettings
  1

  2
none_device
  4

  6

 40
0.0
 41
0.0
 42
0.0
 43
0.0
 44
0.0
 45
0.0
 46
0.0
 47
0.0
 48
0.0
 49
0.0
140
0.0
141
0.0
142
1.0
143
1.0
 70
  1712
 72
     0
 73
     0
 74
     0
  7

 75
     0
 76
     0
 77
     2
 78
   300
147
1.0
148
0.0
149
0.0
100
AcDbLayout
  1
Model
 70
     1
 71
     0
 10
0.0
 20
0.0
 11
12.0
 21
9.0
 12
0.0
 22
0.0
 32
0.0
 14
1.000000000000000E+20
 24
1.000000000000000E+20
 34
1.000000000000000E+20
 15
-1.000000000000000E+20
 25
-1.000000000000000E+20
 35
-1.000000000000000E+20
146
0.0
 13
0.0
 23
0.0
 33
0.0
 16
1.0
 26
0.0
 36
0.0
 17
0.0
 27
1.0
 37
0.0
 76
     0
330
1F
331
29
  0
MATERIAL
  5
3D
102
{ACAD_REACTORS
330
3B
102
}
330
3B
100
AcDbMaterial
  1
ByBlock
 72
     1
 94
      127
  0
MATERIAL
  5
3C
102
{ACAD_REACTORS
330
3B
102
}
330
3B
100
AcDbMaterial
  1
ByLayer
 72
     1
 94
      127
  0
MATERIAL
  5
3E
102
{ACAD_REACTORS
330
3B
102
}
330
3B
100
AcDbMaterial
  1
Global
 72
     1
 94
      127
  0
MLINESTYLE
  5
18
102
{ACAD_REACTORS
330
17
102
}
330
17
100
AcDbMlineStyle
  2
Standard
 70
     0
  3

 62
   256
 51
90.0
 52
90.0
 71
     2
 49
0.5
 62
   256
  6
BYLAYER
 49
-0.5
 62
   256
  6
BYLAYER
  0
ACDBPLACEHOLDER
  5
F
102
{ACAD_REACTORS
330
E
102
}
330
E
  0
VISUALSTYLE
  5
2F
102
{ACAD_REACTORS
330
2A
102
}
330
2A
100
AcDbVisualStyle
  2
2dWireframe
 70
     4
177
     2
291
     0
 71
     0
176
     1
 72
     2
176
     1
 73
     0
176
     1
 90
        0
176
     1
 40
-0.6
176
     1
 41
-30.0
176
     1
 62
     5
 63
     7
421
 16777215
176
     1
 74
     1
176
     1
 91
        4
176
     1
 64
     7
176
     1
 65
   257
176
     1
 75
     1
176
     1
175
     1
176
     1
 42
1.0
176
     1
 92
        0
176
     1
 66
   257
176
     1
 43
1.0
176
     1
 76
     1
176
     1
 77
     6
176
     1
 78
     2
176
     1
 67
     7
176
     1
 79
     5
176
     1
170
     0
176
     1
171
     0
176
     1
290
     0
176
     1
 93
        1
176
     1
 44
0.0
176
     1
173
     0
176
     1
  0
VISUALSTYLE
  5
31
102
{ACAD_REACTORS
330
2A
102
}
330
2A
100
AcDbVisualStyle
  2
3D Hidden
 70
     6
177
     2
291
     0
 71
     1
176
     1
 72
     2
176
     1
 73
     2
176
     1
 90
        0
176
     1
 40
-0.6
176
     1
 41
-30.0
176
     1
 62
     5
 63
     7
421
 16777215
176
     1
 74
     2
176
     1
 91
        2
176
     1
 64
     7
176
     1
 65
   257
176
     1
 75
     2
176
     1
175
     1
176
     1
 42
40.0
176
     1
 92
        0
176
     1
 66
   257
176
     1
 43
1.0
176
     1
 76
     1
176
     1
 77
     6
176
     1
 78
     2
176
     1
 67
     7
176
     1
 79
     3
176
     1
170
     0
176
     1
171
     0
176
     1
290
     0
176
     1
 93
        1
176
     1
 44
0.0
176
     1
173
     0
176
     1
  0
VISUALSTYLE
  5
30
102
{ACAD_REACTORS
330
2A
102
}
330
2A
100
AcDbVisualStyle
  2
3dWireframe
 70
     5
177
     2
291
     0
 71
     0
176
     1
 72
     2
176
     1
 73
     0
176
     1
 90
        0
176
     1
 40
-0.6
176
     1
 41
-30.0
176
     1
 62
     5
 63
     7
421
 16777215
176
     1
 74
     1
176
     1
 91
        4
176
     1
 64
     7
176
     1
 65
   257
176
     1
 75
     1
176
     1
175
     1
176
     1
 42
1.0
176
     1
 92
        0
176
     1
 66
   257
176
     1
 43
1.0
176
     1
 76
     1
176
     1
 77
     6
176
     1
 78
     2
176
     1
 67
     7
176
     1
 79
     5
176
     1
170
     0
176
     1
171
     0
176
     1
290
     0
176
     1
 93
        1
176
     1
 44
0.0
176
     1
173
     0
176
     1
  0
VISUALSTYLE
  5
32
102
{ACAD_REACTORS
330
2A
102
}
330
2A
100
AcDbVisualStyle
  2
Basic
 70
     7
177
     2
291
     1
 71
     1
176
     1
 72
     0
176
     1
 73
     1
176
     1
 90
        0
176
     1
 40
-0.6
176
     1
 41
-30.0
176
     1
 62
     5
 63
     7
421
 16777215
176
     1
 74
     0
176
     1
 91
        4
176
     1
 64
     7
176
     1
 65
   257
176
     1
 75
     1
176
     1
175
     1
176
     1
 42
1.0
176
     1
 92
        8
176
     1
 66
     7
176
     1
 43
1.0
176
     1
 76
     1
176
     1
 77
     6
176
     1
 78
     2
176
     1
 67
     7
176
     1
 79
     5
176
     1
170
     0
176
     1
171
     0
176
     1
290
     0
176
     1
 93
        1
176
     1
 44
0.0
176
     1
173
     0
176
     1
  0
VISUALSTYLE
  5
36
102
{ACAD_REACTORS
330
2A
102
}
330
2A
100
AcDbVisualStyle
  2
Brighten
 70
    12
177
     2
291
     1
 71
     2
176
     1
 72
     2
176
     1
 73
     0
176
     1
 90
        0
176
     1
 40
-0.6
176
     1
 41
-30.0
176
     1
 62
     5
 63
     7
421
 16777215
176
     1
 74
     1
176
     1
 91
        4
176
     1
 64
     7
176
     1
 65
   257
176
     1
 75
     1
176
     1
175
     1
176
     1
 42
1.0
176
     1
 92
        8
176
     1
 66
     7
176
     1
 43
1.0
176
     1
 76
     1
176
     1
 77
     6
176
     1
 78
     2
176
     1
 67
     7
176
     1
 79
     5
176
     1
170
     0
176
     1
171
     0
176
     1
290
     0
176
     1
 93
        1
176
     1
 44
50.0
176
     1
173
     0
176
     1
  0
VISUALSTYLE
  5
3A
102
{ACAD_REACTORS
330
2A
102
}
330
2A
100
AcDbVisualStyle
  2
ColorChange
 70
    16
177
     2
291
     1
 71
     2
176
     1
 72
     2
176
     1
 73
     3
176
     1
 90
        0
176
     1
 40
-0.6
176
     1
 41
-30.0
176
     1
 62
     5
 63
     8
421
  8421504
176
     1
 74
     1
176
     1
 91
        4
176
     1
 64
     7
176
     1
 65
   257
176
     1
 75
     1
176
     1
175
     1
176
     1
 42
1.0
176
     1
 92
        8
176
     1
 66
     8
424
  8421504
176
     1
 43
1.0
176
     1
 76
     1
176
     1
 77
     6
176
     1
 78
     2
176
     1
 67
     7
176
     1
 79
     5
176
     1
170
     0
176
     1
171
     0
176
     1
290
     0
176
     1
 93
        1
176
     1
 44
0.0
176
     1
173
     0
176
     1
  0
VISUALSTYLE
  5
34
102
{ACAD_REACTORS
330
2A
102
}
330
2A
100
AcDbVisualStyle
  2
Conceptual
 70
     9
177
     2
291
     0
 71
     3
176
     1
 72
     2
176
     1
 73
     0
176
     1
 90
        0
176
     1
 40
-0.6
176
     1
 41
-30.0
176
     1
 62
     5
 63
     7
421
 16777215
176
     1
 74
     2
176
     1
 91
        2
176
     1
 64
     7
176
     1
 65
   257
176
     1
 75
     1
176
     1
175
     1
176
     1
 42
40.0
176
     1
 92
        8
176
     1
 66
     7
176
     1
 43
1.0
176
     1
 76
     1
176
     1
 77
     6
176
     1
 78
     2
176
     1
 67
     7
176
     1
 79
     3
176
     1
170
     0
176
     1
171
     0
176
     1
290
     0
176
     1
 93
        1
176
     1
 44
0.0
176
     1
173
     0
176
     1
  0
VISUALSTYLE
  5
35
102
{ACAD_REACTORS
330
2A
102
}
330
2A
100
AcDbVisualStyle
  2
Dim
 70
    11
177
     2
291
     1
 71
     2
176
     1
 72
     2
176
     1
 73
     0
176
     1
 90
        0
176
     1
 40
-0.6
176
     1
 41
-30.0
176
     1
 62
     5
 63
     7
421
 16777215
176
     1
 74
     1
176
     1
 91
        4
176
     1
 64
     7
176
     1
 65
   257
176
     1
 75
     1
176
     1
175
     1
176
     1
 42
1.0
176
     1
 92
        8
176
     1
 66
     7
176
     1
 43
1.0
176
     1
 76
     1
176
     1
 77
     6
176
     1
 78
     2
176
     1
 67
     7
176
     1
 79
     5
176
     1
170
     0
176
     1
171
     0
176
     1
290
     0
176
     1
 93
        1
176
     1
 44
-50.0
176
     1
173
     0
176
     1
  0
VISUALSTYLE
  5
39
102
{ACAD_REACTORS
330
2A
102
}
330
2A
100
AcDbVisualStyle
  2
Facepattern
 70
    15
177
     2
291
     1
 71
     2
176
     1
 72
     2
176
     1
 73
     0
176
     1
 90
        0
176
     1
 40
-0.6
176
     1
 41
-30.0
176
     1
 62
     5
 63
     7
421
 16777215
176
     1
 74
     1
176
     1
 91
        4
176
     1
 64
     7
176
     1
 65
   257
176
     1
 75
     1
176
     1
175
     1
176
     1
 42
1.0
176
     1
 92
        8
176
     1
 66
     7
176
     1
 43
1.0
176
     1
 76
     1
176
     1
 77
     6
176
     1
 78
     2
176
     1
 67
     7
176
     1
 79
     5
176
     1
170
     0
176
     1
171
     0
176
     1
290
     0
176
     1
 93
        1
176
     1
 44
0.0
176
     1
173
     0
176
     1
  0
VISUALSTYLE
  5
2B
102
{ACAD_REACTORS
330
2A
102
}
330
2A
100
AcDbVisualStyle
  2
Flat
 70
     0
177
     2
291
     1
 71
     2
176
     1
 72
     1
176
     1
 73
     1
176
     1
 90
        2
176
     1
 40
-0.6
176
     1
 41
30.0
176
     1
 62
     5
 63
     7
421
 16777215
176
     1
 74
     0
176
     1
 91
        4
176
     1
 64
     7
176
     1
 65
   257
176
     1
 75
     1
176
     1
175
     1
176
     1
 42
1.0
176
     1
 92
        8
176
     1
 66
     7
176
     1
 43
1.0
176
     1
 76
     1
176
     1
 77
     6
176
     1
 78
     2
176
     1
 67
     7
176
     1
 79
     5
176
     1
170
     0
176
     1
171
     0
176
     1
290
     0
176
     1
 93
       13
176
     1
 44
0.0
176
     1
173
     0
176
     1
  0
VISUALSTYLE
  5
2C
102
{ACAD_REACTORS
330
2A
102
}
330
2A
100
AcDbVisualStyle
  2
FlatWithEdges
 70
     1
177
     2
291
     1
 71
     2
176
     1
 72
     1
176
     1
 73
     1
176
     1
 90
        2
176
     1
 40
-0.6
176
     1
 41
30.0
176
     1
 62
     5
 63
     7
421
 16777215
176
     1
 74
     1
176
     1
 91
        4
176
     1
 64
     7
176
     1
 65
   257
176
     1
 75
     1
176
     1
175
     1
176
     1
 42
1.0
176
     1
 92
        0
176
     1
 66
   257
176
     1
 43
1.0
176
     1
 76
     1
176
     1
 77
     6
176
     1
 78
     2
176
     1
 67
     7
176
     1
 79
     5
176
     1
170
     0
176
     1
171
     0
176
     1
290
     0
176
     1
 93
       13
176
     1
 44
0.0
176
     1
173
     0
176
     1
  0
VISUALSTYLE
  5
2D
102
{ACAD_REACTORS
330
2A
102
}
330
2A
100
AcDbVisualStyle
  2
Gouraud
 70
     2
177
     2
291
     1
 71
     2
176
     1
 72
     2
176
     1
 73
     1
176
     1
 90
        2
176
     1
 40
-0.6
176
     1
 41
30.0
176
     1
 62
     5
 63
     7
421
 16777215
176
     1
 74
     0
176
     1
 91
        4
176
     1
 64
     7
176
     1
 65
   257
176
     1
 75
     1
176
     1
175
     1
176
     1
 42
1.0
176
     1
 92
        0
176
     1
 66
     7
176
     1
 43
1.0
176
     1
 76
     1
176
     1
 77
     6
176
     1
 78
     2
176
     1
 67
     7
176
     1
 79
     5
176
     1
170
     0
176
     1
171
     0
176
     1
290
     0
176
     1
 93
       13
176
     1
 44
0.0
176
     1
173
     0
176
     1
  0
VISUALSTYLE
  5
2E
102
{ACAD_REACTORS
330
2A
102
}
330
2A
100
AcDbVisualStyle
  2
GouraudWithEdges
 70
     3
177
     2
291
     1
 71
     2
176
     1
 72
     2
176
     1
 73
     1
176
     1
 90
        2
176
     1
 40
-0.6
176
     1
 41
30.0
176
     1
 62
     5
 63
     7
421
 16777215
176
     1
 74
     1
176
     1
 91
        4
176
     1
 64
     7
176
     1
 65
   257
176
     1
 75
     1
176
     1
175
     1
176
     1
 42
1.0
176
     1
 92
        0
176
     1
 66
   257
176
     1
 43
1.0
176
     1
 76
     1
176
     1
 77
     6
176
     1
 78
     2
176
     1
 67
     7
176
     1
 79
     5
176
     1
170
     0
176
     1
171
     0
176
     1
290
     0
176
     1
 93
       13
176
     1
 44
0.0
176
     1
173
     0
176
     1
  0
VISUALSTYLE
  5
38
102
{ACAD_REACTORS
330
2A
102
}
330
2A
100
AcDbVisualStyle
  2
Linepattern
 70
    14
177
     2
291
     1
 71
     2
176
     1
 72
     2
176
     1
 73
     0
176
     1
 90
        0
176
     1
 40
-0.6
176
     1
 41
-30.0
176
     1
 62
     5
 63
     7
421
 16777215
176
     1
 74
     1
176
     1
 91
        4
176
     1
 64
     7
176
     1
 65
   257
176
     1
 75
     7
176
     1
175
     7
176
     1
 42
1.0
176
     1
 92
        8
176
     1
 66
     7
176
     1
 43
1.0
176
     1
 76
     1
176
     1
 77
     6
176
     1
 78
     2
176
     1
 67
     7
176
     1
 79
     5
176
     1
170
     0
176
     1
171
     0
176
     1
290
     0
176
     1
 93
        1
176
     1
 44
0.0
176
     1
173
     0
176
     1
  0
VISUALSTYLE
  5
33
102
{ACAD_REACTORS
330
2A
102
}
330
2A
100
AcDbVisualStyle
  2
Realistic
 70
     8
177
     2
291
     0
 71
     2
176
     1
 72
     2
176
     1
 73
     0
176
     1
 90
        0
176
     1
 40
-0.6
176
     1
 41
-30.0
176
     1
 62
     5
 63
     7
421
 16777215
176
     1
 74
     1
176
     1
 91
        0
176
     1
 64
     7
176
     1
 65
   257
176
     1
 75
     1
176
     1
175
     1
176
     1
 42
1.0
176
     1
 92
        8
176
     1
 66
     8
424
  7895160
176
     1
 43
1.0
176
     1
 76
     1
176
     1
 77
     6
176
     1
 78
     2
176
     1
 67
     7
176
     1
 79
     5
176
     1
170
     0
176
     1
171
     0
176
     1
290
     0
176
     1
 93
       13
176
     1
 44
0.0
176
     1
173
     0
176
     1
  0
VISUALSTYLE
  5
37
102
{ACAD_REACTORS
330
2A
102
}
330
2A
100
AcDbVisualStyle
  2
Thicken
 70
    13
177
     2
291
     1
 71
     2
176
     1
 72
     2
176
     1
 73
     0
176
     1
 90
        0
176
     1
 40
-0.6
176
     1
 41
-30.0
176
     1
 62
     5
 63
     7
421
 16777215
176
     1
 74
     1
176
     1
 91
        4
176
     1
 64
     7
176
     1
 65
   257
176
     1
 75
     1
176
     1
175
     1
176
     1
 42
1.0
176
     1
 92
       12
176
     1
 66
     7
176
     1
 43
1.0
176
     1
 76
     1
176
     1
 77
     6
176
     1
 78
     2
176
     1
 67
     7
176
     1
 79
     5
176
     1
170
     0
176
     1
171
     0
176
     1
290
     0
176
     1
 93
        1
176
     1
 44
0.0
176
     1
173
     0
176
     1
  0
ENDSEC
  0
EOF
